  0
SECTION
  2
HEADER
  9
$ACADVER
  1
AC1009
  9
$DWGCODEPAGE
  3
ansi_1252
  9
$INSBASE
 10
0.0
 20
0.0
 30
0.0
  9
$EXTMIN
 10
0.0
 20
0.0
 30
0.0
  9
$EXTMAX
 10
11.0
 20
8.5
 30
0.0
  9
$LIMMIN
 10
0.0
 20
0.0
  9
$LIMMAX
 10
0.0
 20
0.0
  9
$ORTHOMODE
 70
     0
  9
$REGENMODE
 70
     1
  9
$FILLMODE
 70
     1
  9
$QTEXTMODE
 70
     0
  9
$MIRRTEXT
 70
     1
  9
$DRAGMODE
 70
     2
  9
$LTSCALE
 40
1.0
  9
$OSMODE
 70
    37
  9
$ATTMODE
 70
     1
  9
$TEXTSIZE
 40
0.1377952756
  9
$TRACEWID
 40
0.05
  9
$TEXTSTYLE
  7
STANDARD
  9
$CLAYER
  8
0
  9
$CELTYPE
  6
BYLAYER
  9
$CECOLOR
 62
   256
  9
$DIMSCALE
 40
1.0
  9
$DIMASZ
 40
0.156
  9
$DIMEXO
 40
0.05
  9
$DIMDLI
 40
0.38
  9
$DIMRND
 40
0.0
  9
$DIMDLE
 40
0.0
  9
$DIMEXE
 40
0.125
  9
$DIMTP
 40
0.0
  9
$DIMTM
 40
0.0
  9
$DIMTXT
 40
0.1377952756
  9
$DIMCEN
 40
0.09
  9
$DIMTSZ
 40
0.0
  9
$DIMTOL
 70
     0
  9
$DIMLIM
 70
     0
  9
$DIMTIH
 70
     1
  9
$DIMTOH
 70
     1
  9
$DIMSE1
 70
     0
  9
$DIMSE2
 70
     0
  9
$DIMTAD
 70
     0
  9
$DIMZIN
 70
     0
  9
$DIMBLK
  1

  9
$DIMASO
 70
     1
  9
$DIMSHO
 70
     1
  9
$DIMPOST
  1

  9
$DIMAPOST
  1

  9
$DIMALT
 70
     0
  9
$DIMALTD
 70
     2
  9
$DIMALTF
 40
25.4
  9
$DIMLFAC
 40
4.0
  9
$DIMTOFL
 70
     0
  9
$DIMTVP
 40
0.0
  9
$DIMTIX
 70
     0
  9
$DIMSOXD
 70
     0
  9
$DIMSAH
 70
     0
  9
$DIMBLK1
  1

  9
$DIMBLK2
  1

  9
$DIMSTYLE
  2
STANDARD
  9
$DIMCLRD
 70
     0
  9
$DIMCLRE
 70
     0
  9
$DIMCLRT
 70
     0
  9
$DIMTFAC
 40
1.0
  9
$DIMGAP
 40
0.06
  9
$LUNITS
 70
     2
  9
$LUPREC
 70
     2
  9
$SKETCHINC
 40
0.1
  9
$FILLETRAD
 40
0.5
  9
$AUNITS
 70
     0
  9
$AUPREC
 70
     0
  9
$MENU
  1
.
  9
$ELEVATION
 40
0.0
  9
$PELEVATION
 40
0.0
  9
$THICKNESS
 40
0.0
  9
$LIMCHECK
 70
     0
  9
$CHAMFERA
 40
0.5
  9
$CHAMFERB
 40
0.5
  9
$SKPOLY
 70
     0
  9
$TDCREATE
 40
2454306.574820961
  9
$TDUPDATE
 40
2454306.574820972
  9
$TDINDWG
 40
0.0000000116
  9
$TDUSRTIMER
 40
0.0000000116
  9
$USRTIMER
 70
     1
  9
$ANGBASE
 50
0.0
  9
$ANGDIR
 70
     0
  9
$PDMODE
 70
     0
  9
$PDSIZE
 40
-1.0
  9
$PLINEWID
 40
0.0
  9
$COORDS
 70
     1
  9
$SPLFRAME
 70
     0
  9
$SPLINETYPE
 70
     6
  9
$SPLINESEGS
 70
     8
  9
$ATTDIA
 70
     0
  9
$ATTREQ
 70
     1
  9
$HANDLING
 70
     1
  9
$HANDSEED
  5
943
  9
$SURFTAB1
 70
     6
  9
$SURFTAB2
 70
     6
  9
$SURFTYPE
 70
     6
  9
$SURFU
 70
     6
  9
$SURFV
 70
     6
  9
$UCSNAME
  2

  9
$UCSORG
 10
0.0
 20
0.0
 30
0.0
  9
$UCSXDIR
 10
1.0
 20
0.0
 30
0.0
  9
$UCSYDIR
 10
0.0
 20
1.0
 30
0.0
  9
$PUCSNAME
  2

  9
$PUCSORG
 10
0.0
 20
0.0
 30
0.0
  9
$PUCSXDIR
 10
1.0
 20
0.0
 30
0.0
  9
$PUCSYDIR
 10
0.0
 20
1.0
 30
0.0
  9
$USERI1
 70
     0
  9
$USERI2
 70
     0
  9
$USERI3
 70
     0
  9
$USERI4
 70
     0
  9
$USERI5
 70
     0
  9
$USERR1
 40
0.0
  9
$USERR2
 40
0.0
  9
$USERR3
 40
0.0
  9
$USERR4
 40
0.0
  9
$USERR5
 40
0.0
  9
$WORLDVIEW
 70
     1
  9
$SHADEDGE
 70
     3
  9
$SHADEDIF
 70
    70
  9
$TILEMODE
 70
     1
  9
$MAXACTVP
 70
    64
  9
$PLIMCHECK
 70
     0
  9
$PEXTMIN
 10
1.0000000000E+20
 20
1.0000000000E+20
 30
1.0000000000E+20
  9
$PEXTMAX
 10
-1.0000000000E+20
 20
-1.0000000000E+20
 30
-1.0000000000E+20
  9
$PLIMMIN
 10
0.0
 20
0.0
  9
$PLIMMAX
 10
12.0
 20
9.0
  9
$UNITMODE
 70
     0
  9
$VISRETAIN
 70
     1
  9
$PLINEGEN
 70
     0
  9
$PSLTSCALE
 70
     1
  0
ENDSEC
  0
SECTION
  2
TABLES
  0
TABLE
  2
VPORT
 70
     1
  0
VPORT
  2
*ACTIVE
 70
     0
 10
0.0
 20
0.0
 11
1.0
 21
1.0
 12
5.5
 22
4.25
 13
0.0
 23
0.0
 14
0.5
 24
0.5
 15
0.5
 25
0.5
 16
0.0
 26
0.0
 36
1.0
 17
0.0
 27
0.0
 37
0.0
 40
8.5
 41
1.2941176471
 42
50.0
 43
0.0
 44
0.0
 50
0.0
 51
0.0
 71
     0
 72
  2000
 73
     1
 74
     3
 75
     0
 76
     0
 77
     0
 78
     0
  0
ENDTAB
  0
TABLE
  2
LTYPE
 70
     6
  0
LTYPE
  2
CONTINUOUS
 70
     0
  3
Solid line
 72
    65
 73
     0
 40
0.0
  0
LTYPE
  2
HIDDEN
 70
     0
  3
Hidden __ __ __ __ __ __ __ __ __ __ __ __ __ __
 72
    65
 73
     2
 40
0.075
 49
0.05
 49
-0.025
  0
LTYPE
  2
PHANTOM
 70
     0
  3
Phantom ______  __  __  ______  __  __  ______
 72
    65
 73
     6
 40
0.5
 49
0.25
 49
-0.05
 49
0.05
 49
-0.05
 49
0.05
 49
-0.05
  0
LTYPE
  2
CENTER
 70
     0
  3
Center ____ _ ____ _ ____ _ ____ _ ____ _ ____
 72
    65
 73
     4
 40
0.4
 49
0.25
 49
-0.05
 49
0.05
 49
-0.05
  0
LTYPE
  2
CENTERX2
 70
     0
  3
Center (2x) ________  __  ________  __  _____
 72
    65
 73
     4
 40
0.8
 49
0.5
 49
-0.1
 49
0.1
 49
-0.1
  0
LTYPE
  2
DOT2
 70
     0
  3
Dot (.5x) ........................................
 72
    65
 73
     2
 40
0.025
 49
0.0
 49
-0.025
  0
ENDTAB
  0
TABLE
  2
LAYER
 70
     1
  0
LAYER
  2
0
 70
     0
 62
     7
  6
CONTINUOUS
  0
ENDTAB
  0
TABLE
  2
STYLE
 70
     1
  0
STYLE
  2
STANDARD
 70
     0
 40
0.0
 41
1.0
 50
0.0
 71
     0
 42
0.2
  3
txt
  4

  0
ENDTAB
  0
TABLE
  2
VIEW
 70
     0
  0
ENDTAB
  0
TABLE
  2
UCS
 70
     0
  0
ENDTAB
  0
TABLE
  2
APPID
 70
     1
  0
APPID
  2
ACAD
 70
     0
  0
ENDTAB
  0
TABLE
  2
DIMSTYLE
 70
     1
  0
DIMSTYLE
  2
STANDARD
 70
     0
  3

  4

  5

  6

  7

 40
1.0
 41
0.18
 42
0.0625
 43
0.38
 44
0.18
 45
0.0
 46
0.0
 47
0.0
 48
0.0
140
0.18
141
0.09
142
0.0
143
25.4
144
1.0
145
0.0
146
1.0
147
0.09
 71
     0
 72
     0
 73
     1
 74
     1
 75
     0
 76
     0
 77
     0
 78
     0
170
     0
171
     2
172
     0
173
     0
174
     0
175
     0
176
     0
177
     0
178
     0
  0
ENDTAB
  0
ENDSEC
  0
SECTION
  2
BLOCKS
  0
BLOCK
  8
0
  2
$MODEL_SPACE
 70
     0
 10
0.0
 20
0.0
 30
0.0
  3
$MODEL_SPACE
  1

  0
ENDBLK
  5
21
  8
0
  0
BLOCK
 67
     1
  8
0
  2
$PAPER_SPACE
 70
     0
 10
0.0
 20
0.0
 30
0.0
  3
$PAPER_SPACE
  1

  0
ENDBLK
  5
1D
 67
     1
  8
0
  0
ENDSEC
  0
SECTION
  2
ENTITIES
  0
LINE
  5
2F
  8
0
  6
CONTINUOUS
 62
     7
 10
3.5791941738
 20
6.9076504294
 30
0.0
 11
3.5349999402
 21
6.9076504879
 31
0.0
  0
LINE
  5
30
  8
0
  6
CONTINUOUS
 62
     7
 10
4.0511034181
 20
7.2056229657
 30
0.0
 11
4.0290062792
 21
7.1673495696
 31
0.0
  0
LINE
  5
31
  8
0
  6
CONTINUOUS
 62
     7
 10
5.1503008599
 20
7.4677995469
 30
0.0
 11
5.1120275772
 21
7.4898966418
 31
0.0
  0
LINE
  5
32
  8
0
  6
CONTINUOUS
 62
     7
 10
5.7079724228
 20
7.4898966418
 30
0.0
 11
5.6696991401
 21
7.4677995469
 31
0.0
  0
LINE
  5
33
  8
0
  6
CONTINUOUS
 62
     7
 10
8.6438966418
 20
3.9580275772
 30
0.0
 11
8.6217995469
 21
3.9963008599
 31
0.0
  0
LINE
  5
34
  8
0
  6
CONTINUOUS
 62
     7
 10
8.6217995469
 20
4.5156991401
 30
0.0
 11
8.6438966418
 21
4.5539724228
 31
0.0
  0
LINE
  5
35
  8
0
  6
CONTINUOUS
 62
     7
 10
8.3596229657
 20
5.6148965819
 30
0.0
 11
8.3213495696
 21
5.6369937208
 31
0.0
  0
LINE
  5
36
  8
0
  6
CONTINUOUS
 62
     7
 10
8.0616504294
 20
6.0868058262
 30
0.0
 11
8.0616504879
 21
6.1310000598
 31
0.0
  0
LINE
  5
37
  8
0
  6
CONTINUOUS
 62
     7
 10
6.7909937208
 20
7.1673495696
 30
0.0
 11
6.7688965819
 21
7.2056229657
 31
0.0
  0
LINE
  5
38
  8
0
  6
CONTINUOUS
 62
     7
 10
6.7688965819
 20
1.3063770343
 30
0.0
 11
6.7909937208
 21
1.3446504304
 31
0.0
  0
LINE
  5
39
  8
0
  6
CONTINUOUS
 62
     7
 10
5.6696991401
 20
1.0442004531
 30
0.0
 11
5.7079724228
 21
1.0221033582
 31
0.0
  0
LINE
  5
3A
  8
0
  6
CONTINUOUS
 62
     7
 10
8.0616504879
 20
2.3809999402
 30
0.0
 11
8.0616504294
 21
2.4251941738
 31
0.0
  0
LINE
  5
3B
  8
0
  6
CONTINUOUS
 62
     7
 10
7.2850000598
 20
6.9076504879
 30
0.0
 11
7.2408058262
 21
6.9076504294
 31
0.0
  0
LINE
  5
3C
  8
0
  6
CONTINUOUS
 62
     7
 10
8.3213495696
 20
2.8750062792
 30
0.0
 11
8.3596229657
 21
2.8971034181
 31
0.0
  0
LINE
  5
3D
  8
0
  6
CONTINUOUS
 62
     7
 10
7.2408058262
 20
1.6043495706
 30
0.0
 11
7.2850000598
 21
1.6043495121
 31
0.0
  0
LINE
  5
3E
  8
0
  6
CONTINUOUS
 62
     7
 10
5.1120275772
 20
1.0221033582
 30
0.0
 11
5.1503008599
 21
1.0442004531
 31
0.0
  0
LINE
  5
3F
  8
0
  6
CONTINUOUS
 62
     7
 10
3.5349999402
 20
1.6043495121
 30
0.0
 11
3.5791941738
 21
1.6043495706
 31
0.0
  0
LINE
  5
40
  8
0
  6
CONTINUOUS
 62
     7
 10
4.0290062792
 20
1.3446504304
 30
0.0
 11
4.0511034181
 21
1.3063770343
 31
0.0
  0
LINE
  5
41
  8
0
  6
CONTINUOUS
 62
     7
 10
2.7583495121
 20
6.1310000598
 30
0.0
 11
2.7583495706
 21
6.0868058262
 31
0.0
  0
LINE
  5
42
  8
0
  6
CONTINUOUS
 62
     7
 10
2.4986504304
 20
5.6369937208
 30
0.0
 11
2.4603770343
 21
5.6148965819
 31
0.0
  0
LINE
  5
43
  8
0
  6
CONTINUOUS
 62
     7
 10
2.7583495706
 20
2.4251941738
 30
0.0
 11
2.7583495121
 21
2.3809999402
 31
0.0
  0
LINE
  5
44
  8
0
  6
CONTINUOUS
 62
     7
 10
2.1761033582
 20
4.5539724228
 30
0.0
 11
2.1982004531
 21
4.5156991401
 31
0.0
  0
LINE
  5
45
  8
0
  6
CONTINUOUS
 62
     7
 10
2.4603770343
 20
2.8971034181
 30
0.0
 11
2.4986504304
 21
2.8750062792
 31
0.0
  0
LINE
  5
46
  8
0
  6
CONTINUOUS
 62
     7
 10
2.1982004531
 20
3.9963008599
 30
0.0
 11
2.1761033582
 21
3.9580275772
 31
0.0
  0
ARC
  5
47
  8
0
  6
CONTINUOUS
 62
     7
 10
7.0892042189
 20
1.6335322355
 30
0.0
 40
3.094315940155467
 50
88.5540805223
 51
108.7595806586
  0
ARC
  5
48
  8
0
  6
CONTINUOUS
 62
     7
 10
7.068098069
 20
1.667851965
 30
0.0
 40
3.098352133670399
 50
88.7689822987
 51
108.6940370411
  0
LINE
  5
49
  8
0
  6
CONTINUOUS
 62
     7
 10
7.134662074
 20
4.7654889827
 30
0.0
 11
7.1672842744
 21
4.7268629022
 31
0.0
  0
ARC
  5
4A
  8
0
  6
CONTINUOUS
 62
     7
 10
8.1754681257
 20
2.8244774012
 30
0.0
 40
3.0943171588576
 50
118.5540837636
 51
138.7595751771
  0
LINE
  5
4B
  8
0
  6
CONTINUOUS
 62
     7
 10
6.6964213722
 20
5.5424213722
 30
0.0
 11
5.9403300902
 21
4.7863300902
 31
0.0
  0
LINE
  5
4C
  8
0
  6
CONTINUOUS
 62
     7
 10
5.8808629022
 20
6.0132842744
 30
0.0
 11
5.6041142809
 21
4.9804443712
 31
0.0
  0
ARC
  5
4D
  8
0
  6
CONTINUOUS
 62
     7
 10
2.7875322355
 20
5.9352042189
 30
0.0
 40
3.094315940155488
 50
341.2404193414
 51
1.4459194777
  0
ARC
  5
4E
  8
0
  6
CONTINUOUS
 62
     7
 10
5.41
 20
4.256
 30
0.0
 40
0.7499999999999992
 50
354.2020607463
 51
5.7979392537
  0
ARC
  5
4F
  8
0
  6
CONTINUOUS
 62
     7
 10
5.41
 20
4.256
 30
0.0
 40
0.7499999999999994
 50
335.7979392537
 51
354.2020607463
  0
ARC
  5
50
  8
0
  6
CONTINUOUS
 62
     7
 10
5.41
 20
4.256
 30
0.0
 40
0.7499999999999997
 50
324.2020607463
 51
335.7979392537
  0
ARC
  5
51
  8
0
  6
CONTINUOUS
 62
     7
 10
5.41
 20
4.256
 30
0.0
 40
0.7499999999999999
 50
305.7979392537
 51
324.2020607463
  0
ARC
  5
52
  8
0
  6
CONTINUOUS
 62
     7
 10
5.41
 20
4.256
 30
0.0
 40
0.7500000000000001
 50
294.2020607463
 51
305.7979392537
  0
ARC
  5
53
  8
0
  6
CONTINUOUS
 62
     7
 10
5.41
 20
4.256
 30
0.0
 40
0.7500000000000002
 50
264.2020607463
 51
275.7979392537
  0
ARC
  5
54
  8
0
  6
CONTINUOUS
 62
     7
 10
5.41
 20
4.256
 30
0.0
 40
0.7500000000000004
 50
245.7979392537
 51
264.2020607463
  0
ARC
  5
55
  8
0
  6
CONTINUOUS
 62
     7
 10
5.41
 20
4.256
 30
0.0
 40
0.7500000000000004
 50
234.2020607463
 51
245.7979392537
  0
ARC
  5
56
  8
0
  6
CONTINUOUS
 62
     7
 10
5.41
 20
4.256
 30
0.0
 40
0.7500000000000002
 50
204.2020607463
 51
215.7979392537
  0
ARC
  5
57
  8
0
  6
CONTINUOUS
 62
     7
 10
5.41
 20
4.256
 30
0.0
 40
0.75
 50
174.2020607463
 51
185.7979392537
  0
ARC
  5
58
  8
0
  6
CONTINUOUS
 62
     7
 10
5.41
 20
4.256
 30
0.0
 40
0.7500000000000002
 50
144.2020607463
 51
155.7979392537
  0
ARC
  5
59
  8
0
  6
CONTINUOUS
 62
     7
 10
5.41
 20
4.256
 30
0.0
 40
0.7500000000000008
 50
114.2020607463
 51
125.7979392537
  0
ARC
  5
5A
  8
0
  6
CONTINUOUS
 62
     7
 10
5.41
 20
4.256
 30
0.0
 40
0.7500000000000008
 50
95.7979392537
 51
114.2020607463
  0
ARC
  5
5B
  8
0
  6
CONTINUOUS
 62
     7
 10
5.41
 20
4.256
 30
0.0
 40
0.7499999999999998
 50
84.2020607463
 51
95.7979392537
  0
ARC
  5
5C
  8
0
  6
CONTINUOUS
 62
     7
 10
5.41
 20
4.256
 30
0.0
 40
0.7499999999999997
 50
54.2020607463
 51
65.7979392537
  0
ARC
  5
5D
  8
0
  6
CONTINUOUS
 62
     7
 10
5.41
 20
4.256
 30
0.0
 40
0.7499999999999998
 50
24.2020607463
 51
35.7979392537
  0
CIRCLE
  5
5E
  8
0
  6
CONTINUOUS
 62
     7
 10
5.41
 20
4.256
 30
0.0
 40
0.6874999999999991
  0
ARC
  5
5F
  8
0
  6
CONTINUOUS
 62
     7
 10
5.41
 20
4.256
 30
0.0
 40
0.7499999999999994
 50
5.7979392537
 51
24.2020607463
  0
ARC
  5
60
  8
0
  6
CONTINUOUS
 62
     7
 10
5.41
 20
4.256
 30
0.0
 40
0.7499999999999998
 50
35.7979392537
 51
54.2020607463
  0
ARC
  5
61
  8
0
  6
CONTINUOUS
 62
     7
 10
5.41
 20
4.256
 30
0.0
 40
0.7499999999999997
 50
65.7979392537
 51
84.2020607463
  0
ARC
  5
62
  8
0
  6
CONTINUOUS
 62
     7
 10
5.41
 20
4.256
 30
0.0
 40
0.7500000000000003
 50
125.7979392537
 51
144.2020607463
  0
ARC
  5
63
  8
0
  6
CONTINUOUS
 62
     7
 10
5.41
 20
4.256
 30
0.0
 40
0.75
 50
155.7979392537
 51
174.2020607463
  0
ARC
  5
64
  8
0
  6
CONTINUOUS
 62
     7
 10
5.41
 20
4.256
 30
0.0
 40
0.7500000000000002
 50
185.7979392537
 51
204.2020607463
  0
ARC
  5
65
  8
0
  6
CONTINUOUS
 62
     7
 10
5.41
 20
4.256
 30
0.0
 40
0.7500000000000001
 50
215.7979392537
 51
234.2020607463
  0
ARC
  5
66
  8
0
  6
CONTINUOUS
 62
     7
 10
5.41
 20
4.256
 30
0.0
 40
0.7500000000000001
 50
275.7979392537
 51
294.2020607463
  0
ARC
  5
67
  8
0
  6
CONTINUOUS
 62
     7
 10
2.6799701257
 20
5.668353921
 30
0.0
 40
3.098353422525525
 50
298.7689838364
 51
318.6940326356
  0
LINE
  5
68
  8
0
  6
CONTINUOUS
 62
     7
 10
4.1235786278
 20
2.9695786278
 30
0.0
 11
4.1711433223
 21
2.952438561
 31
0.0
  0
ARC
  5
69
  8
0
  6
CONTINUOUS
 62
     7
 10
2.6445318743
 20
5.6875225988
 30
0.0
 40
3.094317158857584
 50
298.5540837636
 51
318.7595751771
  0
ARC
  5
6A
  8
0
  6
CONTINUOUS
 62
     7
 10
8.0324677645
 20
2.5767957811
 30
0.0
 40
3.094315940155508
 50
161.2404193414
 51
181.4459194777
  0
LINE
  5
6B
  8
0
  6
CONTINUOUS
 62
     7
 10
4.9005110173
 20
2.531337926
 30
0.0
 11
4.9391370978
 21
2.4987157256
 31
0.0
  0
ARC
  5
6C
  8
0
  6
CONTINUOUS
 62
     7
 10
7.998148035
 20
2.597901931
 30
0.0
 40
3.0983521336704
 50
161.3059629589
 51
181.2310177013
  0
ARC
  5
6D
  8
0
  6
CONTINUOUS
 62
     7
 10
5.5529991217
 20
1.1452730294
 30
0.0
 40
3.094317175039481
 50
58.5540835832
 51
78.7595754194
  0
ARC
  5
6E
  8
0
  6
CONTINUOUS
 62
     7
 10
5.5518816965
 20
1.1855509211
 30
0.0
 40
3.098350139838874
 50
58.7689742222
 51
78.6940422682
  0
LINE
  5
6F
  8
0
  6
CONTINUOUS
 62
     7
 10
7.1583456604
 20
3.834899365
 30
0.0
 11
7.1672842744
 21
3.7851370978
 31
0.0
  0
ARC
  5
70
  8
0
  6
CONTINUOUS
 62
     7
 10
5.5529991217
 20
7.3667269706
 30
0.0
 40
3.094317175039506
 50
281.2404245806
 51
301.4459164168
  0
LINE
  5
71
  8
0
  6
CONTINUOUS
 62
     7
 10
7.1583456604
 20
4.677100635
 30
0.0
 11
7.1672842744
 21
4.7268629022
 31
0.0
  0
ARC
  5
72
  8
0
  6
CONTINUOUS
 62
     7
 10
5.5518816965
 20
7.3264490789
 30
0.0
 40
3.09835013983887
 50
281.3059577318
 51
301.2310257778
  0
ARC
  5
73
  8
0
  6
CONTINUOUS
 62
     7
 10
2.6445318743
 20
2.8244774012
 30
0.0
 40
3.09431715885758
 50
41.2404248229
 51
61.4459162364
  0
LINE
  5
74
  8
0
  6
CONTINUOUS
 62
     7
 10
4.8796699098
 20
4.7863300902
 30
0.0
 11
4.1235786278
 21
5.5424213722
 31
0.0
  0
ARC
  5
75
  8
0
  6
CONTINUOUS
 62
     7
 10
6.8415225988
 20
7.0214681257
 30
0.0
 40
3.094317158857573
 50
208.5540837636
 51
228.7595751771
  0
ARC
  5
76
  8
0
  6
CONTINUOUS
 62
     7
 10
3.7307957811
 20
1.6335322355
 30
0.0
 40
3.094315940155476
 50
71.2404193414
 51
91.4459194777
  0
LINE
  5
77
  8
0
  6
CONTINUOUS
 62
     7
 10
4.6855556288
 20
4.4501142809
 30
0.0
 11
3.6527157256
 21
4.7268629022
 31
0.0
  0
LINE
  5
78
  8
0
  6
CONTINUOUS
 62
     7
 10
7.1672842744
 20
3.7851370978
 30
0.0
 11
6.1344443712
 21
4.0618857191
 31
0.0
  0
ARC
  5
79
  8
0
  6
CONTINUOUS
 62
     7
 10
7.0892042189
 20
6.8784677645
 30
0.0
 40
3.094315940155474
 50
251.2404193414
 51
271.4459194777
  0
LINE
  5
7A
  8
0
  6
CONTINUOUS
 62
     7
 10
5.8808629022
 20
2.4987157256
 30
0.0
 11
5.6041142809
 21
3.5315556288
 31
0.0
  0
ARC
  5
7B
  8
0
  6
CONTINUOUS
 62
     7
 10
8.5207269706
 20
4.1130008783
 30
0.0
 40
3.094317175039443
 50
191.2404245806
 51
211.4459164168
  0
LINE
  5
7C
  8
0
  6
CONTINUOUS
 62
     7
 10
7.134662074
 20
3.7465110173
 30
0.0
 11
7.1672842744
 21
3.7851370978
 31
0.0
  0
ARC
  5
7D
  8
0
  6
CONTINUOUS
 62
     7
 10
7.068098069
 20
6.844148035
 30
0.0
 40
3.09835213367042
 50
251.3059629589
 51
271.2310177013
  0
ARC
  5
7E
  8
0
  6
CONTINUOUS
 62
     7
 10
2.2992730294
 20
4.3989991217
 30
0.0
 40
3.094317175039455
 50
11.2404245806
 51
31.4459164168
  0
LINE
  5
7F
  8
0
  6
CONTINUOUS
 62
     7
 10
5.2158857191
 20
4.9804443712
 30
0.0
 11
4.9391370978
 21
6.0132842744
 31
0.0
  0
ARC
  5
80
  8
0
  6
CONTINUOUS
 62
     7
 10
2.6799701257
 20
2.843646079
 30
0.0
 40
3.098353422525534
 50
41.3059673644
 51
61.2310161636
  0
LINE
  5
81
  8
0
  6
CONTINUOUS
 62
     7
 10
4.1235786278
 20
5.5424213722
 30
0.0
 11
4.1711433223
 21
5.559561439
 31
0.0
  0
ARC
  5
82
  8
0
  6
CONTINUOUS
 62
     7
 10
3.9784774012
 20
7.0214681257
 30
0.0
 40
3.094317158857554
 50
311.2404248229
 51
331.4459162364
  0
LINE
  5
83
  8
0
  6
CONTINUOUS
 62
     7
 10
6.713561439
 20
5.4948566777
 30
0.0
 11
6.6964213722
 21
5.5424213722
 31
0.0
  0
ARC
  5
84
  8
0
  6
CONTINUOUS
 62
     7
 10
3.997646079
 20
6.9860298743
 30
0.0
 40
3.098353422525521
 50
311.3059673644
 51
331.2310161636
  0
ARC
  5
85
  8
0
  6
CONTINUOUS
 62
     7
 10
5.2670008783
 20
7.3667269706
 30
0.0
 40
3.094317175039509
 50
238.5540835832
 51
258.7595754194
  0
ARC
  5
86
  8
0
  6
CONTINUOUS
 62
     7
 10
5.2670008783
 20
1.1452730294
 30
0.0
 40
3.094317175039488
 50
101.2404245806
 51
121.4459164168
  0
LINE
  5
87
  8
0
  6
CONTINUOUS
 62
     7
 10
4.6855556288
 20
4.0618857191
 30
0.0
 11
3.6527157256
 21
3.7851370978
 31
0.0
  0
ARC
  5
88
  8
0
  6
CONTINUOUS
 62
     7
 10
8.1754681257
 20
5.6875225988
 30
0.0
 40
3.094317158857606
 50
221.2404248229
 51
241.4459162364
  0
LINE
  5
89
  8
0
  6
CONTINUOUS
 62
     7
 10
6.6488566777
 20
2.952438561
 30
0.0
 11
6.6964213722
 21
2.9695786278
 31
0.0
  0
ARC
  5
8A
  8
0
  6
CONTINUOUS
 62
     7
 10
8.1400298743
 20
5.668353921
 30
0.0
 40
3.098353422525542
 50
221.3059673644
 51
241.2310161636
  0
ARC
  5
8B
  8
0
  6
CONTINUOUS
 62
     7
 10
2.2992730294
 20
4.1130008783
 30
0.0
 40
3.094317175039441
 50
328.5540835832
 51
348.7595754194
  0
ARC
  5
8C
  8
0
  6
CONTINUOUS
 62
     7
 10
2.3395509211
 20
4.1141183035
 30
0.0
 40
3.098350139838846
 50
328.7689742222
 51
348.6940422682
  0
LINE
  5
8D
  8
0
  6
CONTINUOUS
 62
     7
 10
4.988899365
 20
2.5076543396
 30
0.0
 11
4.9391370978
 21
2.4987157256
 31
0.0
  0
ARC
  5
8E
  8
0
  6
CONTINUOUS
 62
     7
 10
2.7875322355
 20
2.5767957811
 30
0.0
 40
3.094315940155485
 50
358.5540805223
 51
18.7595806586
  0
ARC
  5
8F
  8
0
  6
CONTINUOUS
 62
     7
 10
2.821851965
 20
2.597901931
 30
0.0
 40
3.098352133670356
 50
358.7689822987
 51
18.6940370411
  0
LINE
  5
90
  8
0
  6
CONTINUOUS
 62
     7
 10
5.9194889827
 20
2.531337926
 30
0.0
 11
5.8808629022
 21
2.4987157256
 31
0.0
  0
ARC
  5
91
  8
0
  6
CONTINUOUS
 62
     7
 10
6.822353921
 20
6.9860298743
 30
0.0
 40
3.098353422525466
 50
208.7689838364
 51
228.6940326356
  0
LINE
  5
92
  8
0
  6
CONTINUOUS
 62
     7
 10
4.1235786278
 20
5.5424213722
 30
0.0
 11
4.106438561
 21
5.4948566777
 31
0.0
  0
ARC
  5
93
  8
0
  6
CONTINUOUS
 62
     7
 10
3.7307957811
 20
6.8784677645
 30
0.0
 40
3.094315940155494
 50
268.5540805223
 51
288.7595806586
  0
ARC
  5
94
  8
0
  6
CONTINUOUS
 62
     7
 10
6.8415225988
 20
1.4905318743
 30
0.0
 40
3.09431715885757
 50
131.2404248229
 51
151.4459162364
  0
LINE
  5
95
  8
0
  6
CONTINUOUS
 62
     7
 10
4.8796699098
 20
3.7256699098
 30
0.0
 11
4.1235786278
 21
2.9695786278
 31
0.0
  0
ARC
  5
96
  8
0
  6
CONTINUOUS
 62
     7
 10
6.822353921
 20
1.5259701257
 30
0.0
 40
3.098353422525473
 50
131.3059673644
 51
151.2310161636
  0
LINE
  5
97
  8
0
  6
CONTINUOUS
 62
     7
 10
4.1235786278
 20
2.9695786278
 30
0.0
 11
4.106438561
 21
3.0171433223
 31
0.0
  0
ARC
  5
98
  8
0
  6
CONTINUOUS
 62
     7
 10
7.998148035
 20
5.914098069
 30
0.0
 40
3.0983521336704
 50
178.7689822987
 51
198.6940370411
  0
LINE
  5
99
  8
0
  6
CONTINUOUS
 62
     7
 10
4.9391370978
 20
6.0132842744
 30
0.0
 11
4.9005110173
 21
5.980662074
 31
0.0
  0
ARC
  5
9A
  8
0
  6
CONTINUOUS
 62
     7
 10
8.0324677645
 20
5.9352042189
 30
0.0
 40
3.094315940155514
 50
178.5540805223
 51
198.7595806586
  0
ARC
  5
9B
  8
0
  6
CONTINUOUS
 62
     7
 10
3.9784774012
 20
1.4905318743
 30
0.0
 40
3.094317158857562
 50
28.5540837636
 51
48.7595751771
  0
ARC
  5
9C
  8
0
  6
CONTINUOUS
 62
     7
 10
3.997646079
 20
1.5259701257
 30
0.0
 40
3.098353422525531
 50
28.7689838364
 51
48.6940326356
  0
LINE
  5
9D
  8
0
  6
CONTINUOUS
 62
     7
 10
6.713561439
 20
3.0171433223
 30
0.0
 11
6.6964213722
 21
2.9695786278
 31
0.0
  0
LINE
  5
9E
  8
0
  6
CONTINUOUS
 62
     7
 10
6.6964213722
 20
2.9695786278
 30
0.0
 11
5.9403300902
 21
3.7256699098
 31
0.0
  0
ARC
  5
9F
  8
0
  6
CONTINUOUS
 62
     7
 10
2.3395509211
 20
4.3978816965
 30
0.0
 40
3.098350139838851
 50
11.3059577318
 51
31.2310257778
  0
LINE
  5
A0
  8
0
  6
CONTINUOUS
 62
     7
 10
4.9391370978
 20
6.0132842744
 30
0.0
 11
4.988899365
 21
6.0043456604
 31
0.0
  0
ARC
  5
A1
  8
0
  6
CONTINUOUS
 62
     7
 10
5.2681183035
 20
7.3264490789
 30
0.0
 40
3.09835013983888
 50
238.7689742222
 51
258.6940422682
  0
LINE
  5
A2
  8
0
  6
CONTINUOUS
 62
     7
 10
3.6527157256
 20
4.7268629022
 30
0.0
 11
3.6616543396
 21
4.677100635
 31
0.0
  0
LINE
  5
A3
  8
0
  6
CONTINUOUS
 62
     7
 10
5.831100635
 20
2.5076543396
 30
0.0
 11
5.8808629022
 21
2.4987157256
 31
0.0
  0
ARC
  5
A4
  8
0
  6
CONTINUOUS
 62
     7
 10
8.4804490789
 20
4.1141183035
 30
0.0
 40
3.098350139838848
 50
191.3059577318
 51
211.2310257778
  0
ARC
  5
A5
  8
0
  6
CONTINUOUS
 62
     7
 10
5.2681183035
 20
1.1855509211
 30
0.0
 40
3.0983501398389
 50
101.3059577318
 51
121.2310257778
  0
LINE
  5
A6
  8
0
  6
CONTINUOUS
 62
     7
 10
3.6527157256
 20
3.7851370978
 30
0.0
 11
3.6616543396
 21
3.834899365
 31
0.0
  0
LINE
  5
A7
  8
0
  6
CONTINUOUS
 62
     7
 10
7.1672842744
 20
4.7268629022
 30
0.0
 11
6.1344443712
 21
4.4501142809
 31
0.0
  0
ARC
  5
A8
  8
0
  6
CONTINUOUS
 62
     7
 10
3.751901931
 20
1.667851965
 30
0.0
 40
3.098352133670398
 50
71.3059629589
 51
91.2310177013
  0
LINE
  5
A9
  8
0
  6
CONTINUOUS
 62
     7
 10
3.6527157256
 20
4.7268629022
 30
0.0
 11
3.685337926
 21
4.7654889827
 31
0.0
  0
ARC
  5
AA
  8
0
  6
CONTINUOUS
 62
     7
 10
8.5207269706
 20
4.3989991217
 30
0.0
 40
3.094317175039454
 50
148.5540835832
 51
168.7595754194
  0
LINE
  5
AB
  8
0
  6
CONTINUOUS
 62
     7
 10
5.9194889827
 20
5.980662074
 30
0.0
 11
5.8808629022
 21
6.0132842744
 31
0.0
  0
ARC
  5
AC
  8
0
  6
CONTINUOUS
 62
     7
 10
2.821851965
 20
5.914098069
 30
0.0
 40
3.098352133670355
 50
341.3059629589
 51
1.2310177013
  0
LINE
  5
AD
  8
0
  6
CONTINUOUS
 62
     7
 10
4.9391370978
 20
2.4987157256
 30
0.0
 11
5.2158857191
 21
3.5315556288
 31
0.0
  0
ARC
  5
AE
  8
0
  6
CONTINUOUS
 62
     7
 10
8.4804490789
 20
4.3978816965
 30
0.0
 40
3.098350139838849
 50
148.7689742222
 51
168.6940422682
  0
LINE
  5
AF
  8
0
  6
CONTINUOUS
 62
     7
 10
5.831100635
 20
6.0043456604
 30
0.0
 11
5.8808629022
 21
6.0132842744
 31
0.0
  0
ARC
  5
B0
  8
0
  6
CONTINUOUS
 62
     7
 10
8.1400298743
 20
2.843646079
 30
0.0
 40
3.098353422525552
 50
118.7689838364
 51
138.6940326356
  0
LINE
  5
B1
  8
0
  6
CONTINUOUS
 62
     7
 10
6.6488566777
 20
5.559561439
 30
0.0
 11
6.6964213722
 21
5.5424213722
 31
0.0
  0
ARC
  5
B2
  8
0
  6
CONTINUOUS
 62
     7
 10
3.751901931
 20
6.844148035
 30
0.0
 40
3.098352133670403
 50
268.7689822987
 51
288.6940370411
  0
LINE
  5
B3
  8
0
  6
CONTINUOUS
 62
     7
 10
3.6527157256
 20
3.7851370978
 30
0.0
 11
3.685337926
 21
3.7465110173
 31
0.0
  0
POLYLINE
  5
B4
  8
0
  6
CONTINUOUS
 62
     7
 66
     1
 10
0.0
 20
0.0
 30
0.0
  0
VERTEX
  5
26C
  8
0
  6
CONTINUOUS
 62
     7
 10
8.0080761201
 20
2.7559999815
 30
0.0
  0
VERTEX
  5
26D
  8
0
  6
CONTINUOUS
 62
     7
 10
7.9860898675
 20
2.8254160729
 30
0.0
  0
VERTEX
  5
26E
  8
0
  6
CONTINUOUS
 62
     7
 10
7.9603956309
 20
2.8941924117
 30
0.0
  0
VERTEX
  5
26F
  8
0
  6
CONTINUOUS
 62
     7
 10
7.9310300768
 20
2.9622299991
 30
0.0
  0
VERTEX
  5
270
  8
0
  6
CONTINUOUS
 62
     7
 10
7.8980363247
 20
3.0294310828
 30
0.0
  0
VERTEX
  5
271
  8
0
  6
CONTINUOUS
 62
     7
 10
7.8614610138
 20
3.0956987906
 30
0.0
  0
VERTEX
  5
272
  8
0
  6
CONTINUOUS
 62
     7
 10
7.8213572371
 20
3.1609377903
 30
0.0
  0
VERTEX
  5
273
  8
0
  6
CONTINUOUS
 62
     7
 10
7.7777827805
 20
3.2250542162
 30
0.0
  0
VERTEX
  5
274
  8
0
  6
CONTINUOUS
 62
     7
 10
7.7307999766
 20
3.2879556696
 30
0.0
  0
VERTEX
  5
275
  8
0
  6
CONTINUOUS
 62
     7
 10
7.6804768779
 20
3.3495517314
 30
0.0
  0
VERTEX
  5
276
  8
0
  6
CONTINUOUS
 62
     7
 10
7.6268856437
 20
3.4097536692
 30
0.0
  0
VERTEX
  5
277
  8
0
  6
CONTINUOUS
 62
     7
 10
7.5701034196
 20
3.4684748776
 30
0.0
  0
VERTEX
  5
278
  8
0
  6
CONTINUOUS
 62
     7
 10
7.5102120448
 20
3.5256307306
 30
0.0
  0
VERTEX
  5
279
  8
0
  6
CONTINUOUS
 62
     7
 10
7.4472977583
 20
3.5811390961
 30
0.0
  0
VERTEX
  5
27A
  8
0
  6
CONTINUOUS
 62
     7
 10
7.3814510523
 20
3.6349200414
 30
0.0
  0
VERTEX
  5
27B
  8
0
  6
CONTINUOUS
 62
     7
 10
7.3127666724
 20
3.686896091
 30
0.0
  0
VERTEX
  5
27C
  8
0
  6
CONTINUOUS
 62
     7
 10
7.2413434708
 20
3.7369924823
 30
0.0
  0
VERTEX
  5
27D
  8
0
  6
CONTINUOUS
 62
     7
 10
7.1672842597
 20
3.7851370928
 30
0.0
  0
SEQEND
  5
26B
  8
0
  6
CONTINUOUS
 62
     7
  0
LINE
  5
B5
  8
0
  6
CONTINUOUS
 62
     7
 10
8.0080762114
 20
2.756
 30
0.0
 11
7.4697169517
 21
3.0668218635
 31
0.0
  0
POLYLINE
  5
B6
  8
0
  6
CONTINUOUS
 62
     7
 66
     1
 10
0.0
 20
0.0
 30
0.0
  0
VERTEX
  5
27F
  8
0
  6
CONTINUOUS
 62
     7
 10
7.469716966
 20
3.0668218508
 30
0.0
  0
VERTEX
  5
280
  8
0
  6
CONTINUOUS
 62
     7
 10
7.429690775
 20
3.1239625241
 30
0.0
  0
VERTEX
  5
281
  8
0
  6
CONTINUOUS
 62
     7
 10
7.3864957407
 20
3.1799374308
 30
0.0
  0
VERTEX
  5
282
  8
0
  6
CONTINUOUS
 62
     7
 10
7.3401996222
 20
3.2346588653
 30
0.0
  0
VERTEX
  5
283
  8
0
  6
CONTINUOUS
 62
     7
 10
7.2908750186
 20
3.2880408819
 30
0.0
  0
VERTEX
  5
284
  8
0
  6
CONTINUOUS
 62
     7
 10
7.2385993692
 20
3.3399998084
 30
0.0
  0
VERTEX
  5
285
  8
0
  6
CONTINUOUS
 62
     7
 10
7.1834548062
 20
3.3904541722
 30
0.0
  0
VERTEX
  5
286
  8
0
  6
CONTINUOUS
 62
     7
 10
7.1255277154
 20
3.4393246276
 30
0.0
  0
VERTEX
  5
287
  8
0
  6
CONTINUOUS
 62
     7
 10
7.0649088824
 20
3.4865346156
 30
0.0
  0
VERTEX
  5
288
  8
0
  6
CONTINUOUS
 62
     7
 10
7.0016936393
 20
3.5320100703
 30
0.0
  0
VERTEX
  5
289
  8
0
  6
CONTINUOUS
 62
     7
 10
6.9359811317
 20
3.5756796391
 30
0.0
  0
VERTEX
  5
28A
  8
0
  6
CONTINUOUS
 62
     7
 10
6.8678743185
 20
3.6174747563
 30
0.0
  0
VERTEX
  5
28B
  8
0
  6
CONTINUOUS
 62
     7
 10
6.7974801184
 20
3.6573298992
 30
0.0
  0
VERTEX
  5
28C
  8
0
  6
CONTINUOUS
 62
     7
 10
6.7249091167
 20
3.6951824786
 30
0.0
  0
VERTEX
  5
28D
  8
0
  6
CONTINUOUS
 62
     7
 10
6.6502749789
 20
3.7309731685
 30
0.0
  0
VERTEX
  5
28E
  8
0
  6
CONTINUOUS
 62
     7
 10
6.5736948902
 20
3.7646457962
 30
0.0
  0
VERTEX
  5
28F
  8
0
  6
CONTINUOUS
 62
     7
 10
6.4952889693
 20
3.7961475256
 30
0.0
  0
VERTEX
  5
290
  8
0
  6
CONTINUOUS
 62
     7
 10
6.4757702081
 20
3.8035454535
 30
0.0
  0
SEQEND
  5
27E
  8
0
  6
CONTINUOUS
 62
     7
  0
POLYLINE
  5
B7
  8
0
  6
CONTINUOUS
 62
     7
 66
     1
 10
0.0
 20
0.0
 30
0.0
  0
VERTEX
  5
292
  8
0
  6
CONTINUOUS
 62
     7
 10
6.1067567377
 20
5.1807222109
 30
0.0
  0
VERTEX
  5
293
  8
0
  6
CONTINUOUS
 62
     7
 10
6.1199615718
 20
5.1968884308
 30
0.0
  0
VERTEX
  5
294
  8
0
  6
CONTINUOUS
 62
     7
 10
6.1721122627
 20
5.2633726894
 30
0.0
  0
VERTEX
  5
295
  8
0
  6
CONTINUOUS
 62
     7
 10
6.2215962177
 20
5.3308240569
 30
0.0
  0
VERTEX
  5
296
  8
0
  6
CONTINUOUS
 62
     7
 10
6.2683359244
 20
5.3991367877
 30
0.0
  0
VERTEX
  5
297
  8
0
  6
CONTINUOUS
 62
     7
 10
6.3122580504
 20
5.4682035965
 30
0.0
  0
VERTEX
  5
298
  8
0
  6
CONTINUOUS
 62
     7
 10
6.3532935897
 20
5.5379162445
 30
0.0
  0
VERTEX
  5
299
  8
0
  6
CONTINUOUS
 62
     7
 10
6.3913782297
 20
5.6081652463
 30
0.0
  0
VERTEX
  5
29A
  8
0
  6
CONTINUOUS
 62
     7
 10
6.4264522045
 20
5.6788404566
 30
0.0
  0
VERTEX
  5
29B
  8
0
  6
CONTINUOUS
 62
     7
 10
6.4584605148
 20
5.7498309965
 30
0.0
  0
VERTEX
  5
29C
  8
0
  6
CONTINUOUS
 62
     7
 10
6.4873528543
 20
5.8210254007
 30
0.0
  0
VERTEX
  5
29D
  8
0
  6
CONTINUOUS
 62
     7
 10
6.5130839771
 20
5.8923120572
 30
0.0
  0
VERTEX
  5
29E
  8
0
  6
CONTINUOUS
 62
     7
 10
6.5356134768
 20
5.9635790606
 30
0.0
  0
VERTEX
  5
29F
  8
0
  6
CONTINUOUS
 62
     7
 10
6.5549060073
 20
6.0347146521
 30
0.0
  0
VERTEX
  5
2A0
  8
0
  6
CONTINUOUS
 62
     7
 10
6.5709312822
 20
6.1056072198
 30
0.0
  0
VERTEX
  5
2A1
  8
0
  6
CONTINUOUS
 62
     7
 10
6.5836641484
 20
6.1761452983
 30
0.0
  0
VERTEX
  5
2A2
  8
0
  6
CONTINUOUS
 62
     7
 10
6.5930847329
 20
6.2462185955
 30
0.0
  0
VERTEX
  5
2A3
  8
0
  6
CONTINUOUS
 62
     7
 10
6.5991781492
 20
6.315716966
 30
0.0
  0
SEQEND
  5
291
  8
0
  6
CONTINUOUS
 62
     7
  0
LINE
  5
B8
  8
0
  6
CONTINUOUS
 62
     7
 10
6.91
 20
6.8540762114
 30
0.0
 11
6.5991781365
 21
6.3157169517
 31
0.0
  0
POLYLINE
  5
B9
  8
0
  6
CONTINUOUS
 62
     7
 66
     1
 10
0.0
 20
0.0
 30
0.0
  0
VERTEX
  5
2A5
  8
0
  6
CONTINUOUS
 62
     7
 10
6.6964213525
 20
5.5424213525
 30
0.0
  0
VERTEX
  5
2A6
  8
0
  6
CONTINUOUS
 62
     7
 10
6.7364861163
 20
5.6211453897
 30
0.0
  0
VERTEX
  5
2A7
  8
0
  6
CONTINUOUS
 62
     7
 10
6.7732922778
 20
5.7002418093
 30
0.0
  0
VERTEX
  5
2A8
  8
0
  6
CONTINUOUS
 62
     7
 10
6.8067867442
 20
5.7795965059
 30
0.0
  0
VERTEX
  5
2A9
  8
0
  6
CONTINUOUS
 62
     7
 10
6.8369211161
 20
5.8590955209
 30
0.0
  0
VERTEX
  5
2AA
  8
0
  6
CONTINUOUS
 62
     7
 10
6.8636524206
 20
5.9386243088
 30
0.0
  0
VERTEX
  5
2AB
  8
0
  6
CONTINUOUS
 62
     7
 10
6.8869419382
 20
6.0180684711
 30
0.0
  0
VERTEX
  5
2AC
  8
0
  6
CONTINUOUS
 62
     7
 10
6.9067560827
 20
6.097313609
 30
0.0
  0
VERTEX
  5
2AD
  8
0
  6
CONTINUOUS
 62
     7
 10
6.9230665476
 20
6.1762456172
 30
0.0
  0
VERTEX
  5
2AE
  8
0
  6
CONTINUOUS
 62
     7
 10
6.9358495733
 20
6.2547509769
 30
0.0
  0
VERTEX
  5
2AF
  8
0
  6
CONTINUOUS
 62
     7
 10
6.9450871199
 20
6.3327166096
 30
0.0
  0
VERTEX
  5
2B0
  8
0
  6
CONTINUOUS
 62
     7
 10
6.9507655476
 20
6.4100303165
 30
0.0
  0
VERTEX
  5
2B1
  8
0
  6
CONTINUOUS
 62
     7
 10
6.9528769366
 20
6.4865807788
 30
0.0
  0
VERTEX
  5
2B2
  8
0
  6
CONTINUOUS
 62
     7
 10
6.9514180601
 20
6.5622579979
 30
0.0
  0
VERTEX
  5
2B3
  8
0
  6
CONTINUOUS
 62
     7
 10
6.9463912648
 20
6.6369527084
 30
0.0
  0
VERTEX
  5
2B4
  8
0
  6
CONTINUOUS
 62
     7
 10
6.937803444
 20
6.7105576981
 30
0.0
  0
VERTEX
  5
2B5
  8
0
  6
CONTINUOUS
 62
     7
 10
6.9256672109
 20
6.7829670749
 30
0.0
  0
VERTEX
  5
2B6
  8
0
  6
CONTINUOUS
 62
     7
 10
6.9100000185
 20
6.8540761201
 30
0.0
  0
SEQEND
  5
2A4
  8
0
  6
CONTINUOUS
 62
     7
  0
POLYLINE
  5
BA
  8
0
  6
CONTINUOUS
 62
     7
 66
     1
 10
0.0
 20
0.0
 30
0.0
  0
VERTEX
  5
2B8
  8
0
  6
CONTINUOUS
 62
     7
 10
6.9100000185
 20
1.6579238799
 30
0.0
  0
VERTEX
  5
2B9
  8
0
  6
CONTINUOUS
 62
     7
 10
6.9256672109
 20
1.7290329251
 30
0.0
  0
VERTEX
  5
2BA
  8
0
  6
CONTINUOUS
 62
     7
 10
6.937803444
 20
1.8014423019
 30
0.0
  0
VERTEX
  5
2BB
  8
0
  6
CONTINUOUS
 62
     7
 10
6.9463912648
 20
1.8750472916
 30
0.0
  0
VERTEX
  5
2BC
  8
0
  6
CONTINUOUS
 62
     7
 10
6.9514180601
 20
1.9497420021
 30
0.0
  0
VERTEX
  5
2BD
  8
0
  6
CONTINUOUS
 62
     7
 10
6.9528769366
 20
2.0254192212
 30
0.0
  0
VERTEX
  5
2BE
  8
0
  6
CONTINUOUS
 62
     7
 10
6.9507655476
 20
2.1019696835
 30
0.0
  0
VERTEX
  5
2BF
  8
0
  6
CONTINUOUS
 62
     7
 10
6.9450871199
 20
2.1792833904
 30
0.0
  0
VERTEX
  5
2C0
  8
0
  6
CONTINUOUS
 62
     7
 10
6.9358495733
 20
2.2572490231
 30
0.0
  0
VERTEX
  5
2C1
  8
0
  6
CONTINUOUS
 62
     7
 10
6.9230665476
 20
2.3357543828
 30
0.0
  0
VERTEX
  5
2C2
  8
0
  6
CONTINUOUS
 62
     7
 10
6.9067560827
 20
2.414686391
 30
0.0
  0
VERTEX
  5
2C3
  8
0
  6
CONTINUOUS
 62
     7
 10
6.8869419382
 20
2.4939315289
 30
0.0
  0
VERTEX
  5
2C4
  8
0
  6
CONTINUOUS
 62
     7
 10
6.8636524206
 20
2.5733756912
 30
0.0
  0
VERTEX
  5
2C5
  8
0
  6
CONTINUOUS
 62
     7
 10
6.8369211161
 20
2.6529044791
 30
0.0
  0
VERTEX
  5
2C6
  8
0
  6
CONTINUOUS
 62
     7
 10
6.8067867442
 20
2.7324034941
 30
0.0
  0
VERTEX
  5
2C7
  8
0
  6
CONTINUOUS
 62
     7
 10
6.7732922778
 20
2.8117581907
 30
0.0
  0
VERTEX
  5
2C8
  8
0
  6
CONTINUOUS
 62
     7
 10
6.7364861163
 20
2.8908546103
 30
0.0
  0
VERTEX
  5
2C9
  8
0
  6
CONTINUOUS
 62
     7
 10
6.6964213525
 20
2.9695786475
 30
0.0
  0
SEQEND
  5
2B7
  8
0
  6
CONTINUOUS
 62
     7
  0
LINE
  5
BB
  8
0
  6
CONTINUOUS
 62
     7
 10
6.91
 20
1.6579237886
 30
0.0
 11
6.5991781365
 21
2.1962830483
 31
0.0
  0
POLYLINE
  5
BC
  8
0
  6
CONTINUOUS
 62
     7
 66
     1
 10
0.0
 20
0.0
 30
0.0
  0
VERTEX
  5
2CB
  8
0
  6
CONTINUOUS
 62
     7
 10
6.5991781492
 20
2.196283034
 30
0.0
  0
VERTEX
  5
2CC
  8
0
  6
CONTINUOUS
 62
     7
 10
6.5930847329
 20
2.2657814045
 30
0.0
  0
VERTEX
  5
2CD
  8
0
  6
CONTINUOUS
 62
     7
 10
6.5836641484
 20
2.3358547017
 30
0.0
  0
VERTEX
  5
2CE
  8
0
  6
CONTINUOUS
 62
     7
 10
6.5709312822
 20
2.4063927802
 30
0.0
  0
VERTEX
  5
2CF
  8
0
  6
CONTINUOUS
 62
     7
 10
6.5549060073
 20
2.4772853479
 30
0.0
  0
VERTEX
  5
2D0
  8
0
  6
CONTINUOUS
 62
     7
 10
6.5356134768
 20
2.5484209394
 30
0.0
  0
VERTEX
  5
2D1
  8
0
  6
CONTINUOUS
 62
     7
 10
6.5130839771
 20
2.6196879428
 30
0.0
  0
VERTEX
  5
2D2
  8
0
  6
CONTINUOUS
 62
     7
 10
6.4873528543
 20
2.6909745993
 30
0.0
  0
VERTEX
  5
2D3
  8
0
  6
CONTINUOUS
 62
     7
 10
6.4584605148
 20
2.7621690035
 30
0.0
  0
VERTEX
  5
2D4
  8
0
  6
CONTINUOUS
 62
     7
 10
6.4264522045
 20
2.8331595434
 30
0.0
  0
VERTEX
  5
2D5
  8
0
  6
CONTINUOUS
 62
     7
 10
6.3913782297
 20
2.9038347537
 30
0.0
  0
VERTEX
  5
2D6
  8
0
  6
CONTINUOUS
 62
     7
 10
6.3532935897
 20
2.9740837555
 30
0.0
  0
VERTEX
  5
2D7
  8
0
  6
CONTINUOUS
 62
     7
 10
6.3122580504
 20
3.0437964035
 30
0.0
  0
VERTEX
  5
2D8
  8
0
  6
CONTINUOUS
 62
     7
 10
6.2683359244
 20
3.1128632123
 30
0.0
  0
VERTEX
  5
2D9
  8
0
  6
CONTINUOUS
 62
     7
 10
6.2215962177
 20
3.1811759431
 30
0.0
  0
VERTEX
  5
2DA
  8
0
  6
CONTINUOUS
 62
     7
 10
6.1721122627
 20
3.2486273106
 30
0.0
  0
VERTEX
  5
2DB
  8
0
  6
CONTINUOUS
 62
     7
 10
6.1199615718
 20
3.3151115692
 30
0.0
  0
VERTEX
  5
2DC
  8
0
  6
CONTINUOUS
 62
     7
 10
6.1067567377
 20
3.3312777891
 30
0.0
  0
SEQEND
  5
2CA
  8
0
  6
CONTINUOUS
 62
     7
  0
POLYLINE
  5
BD
  8
0
  6
CONTINUOUS
 62
     7
 66
     1
 10
0.0
 20
0.0
 30
0.0
  0
VERTEX
  5
2DE
  8
0
  6
CONTINUOUS
 62
     7
 10
5.5510479514
 20
5.4052112842
 30
0.0
  0
VERTEX
  5
2DF
  8
0
  6
CONTINUOUS
 62
     7
 10
5.554400566
 20
5.4258141195
 30
0.0
  0
VERTEX
  5
2E0
  8
0
  6
CONTINUOUS
 62
     7
 10
5.5663222192
 20
5.5094664665
 30
0.0
  0
VERTEX
  5
2E1
  8
0
  6
CONTINUOUS
 62
     7
 10
5.575450922
 20
5.5926230126
 30
0.0
  0
VERTEX
  5
2E2
  8
0
  6
CONTINUOUS
 62
     7
 10
5.5817723473
 20
5.6751534458
 30
0.0
  0
VERTEX
  5
2E3
  8
0
  6
CONTINUOUS
 62
     7
 10
5.5852765585
 20
5.7569281145
 30
0.0
  0
VERTEX
  5
2E4
  8
0
  6
CONTINUOUS
 62
     7
 10
5.585958074
 20
5.8378188334
 30
0.0
  0
VERTEX
  5
2E5
  8
0
  6
CONTINUOUS
 62
     7
 10
5.5838158304
 20
5.9176985906
 30
0.0
  0
VERTEX
  5
2E6
  8
0
  6
CONTINUOUS
 62
     7
 10
5.5788531827
 20
5.9964421343
 30
0.0
  0
VERTEX
  5
2E7
  8
0
  6
CONTINUOUS
 62
     7
 10
5.5710779042
 20
6.0739258258
 30
0.0
  0
VERTEX
  5
2E8
  8
0
  6
CONTINUOUS
 62
     7
 10
5.5605022047
 20
6.1500282267
 30
0.0
  0
VERTEX
  5
2E9
  8
0
  6
CONTINUOUS
 62
     7
 10
5.5471426849
 20
6.2246298049
 30
0.0
  0
VERTEX
  5
2EA
  8
0
  6
CONTINUOUS
 62
     7
 10
5.5310202995
 20
6.2976136684
 30
0.0
  0
VERTEX
  5
2EB
  8
0
  6
CONTINUOUS
 62
     7
 10
5.512160339
 20
6.3688651253
 30
0.0
  0
VERTEX
  5
2EC
  8
0
  6
CONTINUOUS
 62
     7
 10
5.4905923932
 20
6.4382724169
 30
0.0
  0
VERTEX
  5
2ED
  8
0
  6
CONTINUOUS
 62
     7
 10
5.466350314
 20
6.5057267176
 30
0.0
  0
VERTEX
  5
2EE
  8
0
  6
CONTINUOUS
 62
     7
 10
5.4394721245
 20
6.5711222822
 30
0.0
  0
VERTEX
  5
2EF
  8
0
  6
CONTINUOUS
 62
     7
 10
5.41
 20
6.6343562984
 30
0.0
  0
SEQEND
  5
2DD
  8
0
  6
CONTINUOUS
 62
     7
  0
LINE
  5
BE
  8
0
  6
CONTINUOUS
 62
     7
 10
5.41
 20
7.256
 30
0.0
 11
5.41
 21
6.634356273
 31
0.0
  0
POLYLINE
  5
BF
  8
0
  6
CONTINUOUS
 62
     7
 66
     1
 10
0.0
 20
0.0
 30
0.0
  0
VERTEX
  5
2F1
  8
0
  6
CONTINUOUS
 62
     7
 10
5.8808629072
 20
6.0132842597
 30
0.0
  0
VERTEX
  5
2F2
  8
0
  6
CONTINUOUS
 62
     7
 10
5.8761980078
 20
6.1014937074
 30
0.0
  0
VERTEX
  5
2F3
  8
0
  6
CONTINUOUS
 62
     7
 10
5.8685248631
 20
6.1883962235
 30
0.0
  0
VERTEX
  5
2F4
  8
0
  6
CONTINUOUS
 62
     7
 10
5.857854473
 20
6.2738667028
 30
0.0
  0
VERTEX
  5
2F5
  8
0
  6
CONTINUOUS
 62
     7
 10
5.8442022007
 20
6.3577820934
 30
0.0
  0
VERTEX
  5
2F6
  8
0
  6
CONTINUOUS
 62
     7
 10
5.827587736
 20
6.44002169
 30
0.0
  0
VERTEX
  5
2F7
  8
0
  6
CONTINUOUS
 62
     7
 10
5.8080349485
 20
6.5204669874
 30
0.0
  0
VERTEX
  5
2F8
  8
0
  6
CONTINUOUS
 62
     7
 10
5.785571998
 20
6.5990024134
 30
0.0
  0
VERTEX
  5
2F9
  8
0
  6
CONTINUOUS
 62
     7
 10
5.7602311874
 20
6.6755147429
 30
0.0
  0
VERTEX
  5
2FA
  8
0
  6
CONTINUOUS
 62
     7
 10
5.7320490363
 20
6.7498938303
 30
0.0
  0
VERTEX
  5
2FB
  8
0
  6
CONTINUOUS
 62
     7
 10
5.7010661159
 20
6.822032757
 30
0.0
  0
VERTEX
  5
2FC
  8
0
  6
CONTINUOUS
 62
     7
 10
5.6673269757
 20
6.891827684
 30
0.0
  0
VERTEX
  5
2FD
  8
0
  6
CONTINUOUS
 62
     7
 10
5.6308802167
 20
6.9591779993
 30
0.0
  0
VERTEX
  5
2FE
  8
0
  6
CONTINUOUS
 62
     7
 10
5.5917782717
 20
7.023986904
 30
0.0
  0
VERTEX
  5
2FF
  8
0
  6
CONTINUOUS
 62
     7
 10
5.5500774326
 20
7.0861611191
 30
0.0
  0
VERTEX
  5
300
  8
0
  6
CONTINUOUS
 62
     7
 10
5.5058377312
 20
7.145611179
 30
0.0
  0
VERTEX
  5
301
  8
0
  6
CONTINUOUS
 62
     7
 10
5.4591228429
 20
7.202251138
 30
0.0
  0
VERTEX
  5
302
  8
0
  6
CONTINUOUS
 62
     7
 10
5.41
 20
7.2560000371
 30
0.0
  0
SEQEND
  5
2F0
  8
0
  6
CONTINUOUS
 62
     7
  0
POLYLINE
  5
C0
  8
0
  6
CONTINUOUS
 62
     7
 66
     1
 10
0.0
 20
0.0
 30
0.0
  0
VERTEX
  5
304
  8
0
  6
CONTINUOUS
 62
     7
 10
8.4100000371
 20
4.256
 30
0.0
  0
VERTEX
  5
305
  8
0
  6
CONTINUOUS
 62
     7
 10
8.356251138
 20
4.3051228429
 30
0.0
  0
VERTEX
  5
306
  8
0
  6
CONTINUOUS
 62
     7
 10
8.299611179
 20
4.3518377312
 30
0.0
  0
VERTEX
  5
307
  8
0
  6
CONTINUOUS
 62
     7
 10
8.2401611191
 20
4.3960774326
 30
0.0
  0
VERTEX
  5
308
  8
0
  6
CONTINUOUS
 62
     7
 10
8.177986904
 20
4.4377782717
 30
0.0
  0
VERTEX
  5
309
  8
0
  6
CONTINUOUS
 62
     7
 10
8.1131779993
 20
4.4768802167
 30
0.0
  0
VERTEX
  5
30A
  8
0
  6
CONTINUOUS
 62
     7
 10
8.045827684
 20
4.5133269757
 30
0.0
  0
VERTEX
  5
30B
  8
0
  6
CONTINUOUS
 62
     7
 10
7.976032757
 20
4.5470661159
 30
0.0
  0
VERTEX
  5
30C
  8
0
  6
CONTINUOUS
 62
     7
 10
7.9038938303
 20
4.5780490363
 30
0.0
  0
VERTEX
  5
30D
  8
0
  6
CONTINUOUS
 62
     7
 10
7.8295147429
 20
4.6062311874
 30
0.0
  0
VERTEX
  5
30E
  8
0
  6
CONTINUOUS
 62
     7
 10
7.7530024134
 20
4.631571998
 30
0.0
  0
VERTEX
  5
30F
  8
0
  6
CONTINUOUS
 62
     7
 10
7.6744669874
 20
4.6540349485
 30
0.0
  0
VERTEX
  5
310
  8
0
  6
CONTINUOUS
 62
     7
 10
7.59402169
 20
4.673587736
 30
0.0
  0
VERTEX
  5
311
  8
0
  6
CONTINUOUS
 62
     7
 10
7.5117820934
 20
4.6902022007
 30
0.0
  0
VERTEX
  5
312
  8
0
  6
CONTINUOUS
 62
     7
 10
7.4278667028
 20
4.703854473
 30
0.0
  0
VERTEX
  5
313
  8
0
  6
CONTINUOUS
 62
     7
 10
7.3423962235
 20
4.7145248631
 30
0.0
  0
VERTEX
  5
314
  8
0
  6
CONTINUOUS
 62
     7
 10
7.2554937074
 20
4.7221980078
 30
0.0
  0
VERTEX
  5
315
  8
0
  6
CONTINUOUS
 62
     7
 10
7.1672842597
 20
4.7268629072
 30
0.0
  0
SEQEND
  5
303
  8
0
  6
CONTINUOUS
 62
     7
  0
LINE
  5
C1
  8
0
  6
CONTINUOUS
 62
     7
 10
8.41
 20
4.256
 30
0.0
 11
7.788356273
 21
4.256
 31
0.0
  0
POLYLINE
  5
C2
  8
0
  6
CONTINUOUS
 62
     7
 66
     1
 10
0.0
 20
0.0
 30
0.0
  0
VERTEX
  5
317
  8
0
  6
CONTINUOUS
 62
     7
 10
7.7883562984
 20
4.256
 30
0.0
  0
VERTEX
  5
318
  8
0
  6
CONTINUOUS
 62
     7
 10
7.7251222822
 20
4.2854721245
 30
0.0
  0
VERTEX
  5
319
  8
0
  6
CONTINUOUS
 62
     7
 10
7.6597267176
 20
4.312350314
 30
0.0
  0
VERTEX
  5
31A
  8
0
  6
CONTINUOUS
 62
     7
 10
7.5922724169
 20
4.3365923932
 30
0.0
  0
VERTEX
  5
31B
  8
0
  6
CONTINUOUS
 62
     7
 10
7.5228651253
 20
4.358160339
 30
0.0
  0
VERTEX
  5
31C
  8
0
  6
CONTINUOUS
 62
     7
 10
7.4516136684
 20
4.3770202995
 30
0.0
  0
VERTEX
  5
31D
  8
0
  6
CONTINUOUS
 62
     7
 10
7.3786298049
 20
4.3931426849
 30
0.0
  0
VERTEX
  5
31E
  8
0
  6
CONTINUOUS
 62
     7
 10
7.3040282267
 20
4.4065022047
 30
0.0
  0
VERTEX
  5
31F
  8
0
  6
CONTINUOUS
 62
     7
 10
7.2279258258
 20
4.4170779042
 30
0.0
  0
VERTEX
  5
320
  8
0
  6
CONTINUOUS
 62
     7
 10
7.1504421343
 20
4.4248531827
 30
0.0
  0
VERTEX
  5
321
  8
0
  6
CONTINUOUS
 62
     7
 10
7.0716985906
 20
4.4298158304
 30
0.0
  0
VERTEX
  5
322
  8
0
  6
CONTINUOUS
 62
     7
 10
6.9918188334
 20
4.431958074
 30
0.0
  0
VERTEX
  5
323
  8
0
  6
CONTINUOUS
 62
     7
 10
6.9109281145
 20
4.4312765585
 30
0.0
  0
VERTEX
  5
324
  8
0
  6
CONTINUOUS
 62
     7
 10
6.8291534458
 20
4.4277723473
 30
0.0
  0
VERTEX
  5
325
  8
0
  6
CONTINUOUS
 62
     7
 10
6.7466230126
 20
4.421450922
 30
0.0
  0
VERTEX
  5
326
  8
0
  6
CONTINUOUS
 62
     7
 10
6.6634664665
 20
4.4123222192
 30
0.0
  0
VERTEX
  5
327
  8
0
  6
CONTINUOUS
 62
     7
 10
6.5798141195
 20
4.400400566
 30
0.0
  0
VERTEX
  5
328
  8
0
  6
CONTINUOUS
 62
     7
 10
6.5592112842
 20
4.3970479514
 30
0.0
  0
SEQEND
  5
316
  8
0
  6
CONTINUOUS
 62
     7
  0
POLYLINE
  5
C3
  8
0
  6
CONTINUOUS
 62
     7
 66
     1
 10
0.0
 20
0.0
 30
0.0
  0
VERTEX
  5
32A
  8
0
  6
CONTINUOUS
 62
     7
 10
6.5592112842
 20
4.1149520486
 30
0.0
  0
VERTEX
  5
32B
  8
0
  6
CONTINUOUS
 62
     7
 10
6.5798141195
 20
4.111599434
 30
0.0
  0
VERTEX
  5
32C
  8
0
  6
CONTINUOUS
 62
     7
 10
6.6634664665
 20
4.0996777808
 30
0.0
  0
VERTEX
  5
32D
  8
0
  6
CONTINUOUS
 62
     7
 10
6.7466230126
 20
4.090549078
 30
0.0
  0
VERTEX
  5
32E
  8
0
  6
CONTINUOUS
 62
     7
 10
6.8291534458
 20
4.0842276527
 30
0.0
  0
VERTEX
  5
32F
  8
0
  6
CONTINUOUS
 62
     7
 10
6.9109281145
 20
4.0807234415
 30
0.0
  0
VERTEX
  5
330
  8
0
  6
CONTINUOUS
 62
     7
 10
6.9918188334
 20
4.080041926
 30
0.0
  0
VERTEX
  5
331
  8
0
  6
CONTINUOUS
 62
     7
 10
7.0716985906
 20
4.0821841696
 30
0.0
  0
VERTEX
  5
332
  8
0
  6
CONTINUOUS
 62
     7
 10
7.1504421343
 20
4.0871468173
 30
0.0
  0
VERTEX
  5
333
  8
0
  6
CONTINUOUS
 62
     7
 10
7.2279258258
 20
4.0949220958
 30
0.0
  0
VERTEX
  5
334
  8
0
  6
CONTINUOUS
 62
     7
 10
7.3040282267
 20
4.1054977953
 30
0.0
  0
VERTEX
  5
335
  8
0
  6
CONTINUOUS
 62
     7
 10
7.3786298049
 20
4.1188573151
 30
0.0
  0
VERTEX
  5
336
  8
0
  6
CONTINUOUS
 62
     7
 10
7.4516136684
 20
4.1349797005
 30
0.0
  0
VERTEX
  5
337
  8
0
  6
CONTINUOUS
 62
     7
 10
7.5228651253
 20
4.153839661
 30
0.0
  0
VERTEX
  5
338
  8
0
  6
CONTINUOUS
 62
     7
 10
7.5922724169
 20
4.1754076068
 30
0.0
  0
VERTEX
  5
339
  8
0
  6
CONTINUOUS
 62
     7
 10
7.6597267176
 20
4.199649686
 30
0.0
  0
VERTEX
  5
33A
  8
0
  6
CONTINUOUS
 62
     7
 10
7.7251222822
 20
4.2265278755
 30
0.0
  0
VERTEX
  5
33B
  8
0
  6
CONTINUOUS
 62
     7
 10
7.7883562984
 20
4.256
 30
0.0
  0
SEQEND
  5
329
  8
0
  6
CONTINUOUS
 62
     7
  0
POLYLINE
  5
C4
  8
0
  6
CONTINUOUS
 62
     7
 66
     1
 10
0.0
 20
0.0
 30
0.0
  0
VERTEX
  5
33D
  8
0
  6
CONTINUOUS
 62
     7
 10
7.1672842597
 20
3.7851370928
 30
0.0
  0
VERTEX
  5
33E
  8
0
  6
CONTINUOUS
 62
     7
 10
7.2554937074
 20
3.7898019922
 30
0.0
  0
VERTEX
  5
33F
  8
0
  6
CONTINUOUS
 62
     7
 10
7.3423962235
 20
3.7974751369
 30
0.0
  0
VERTEX
  5
340
  8
0
  6
CONTINUOUS
 62
     7
 10
7.4278667028
 20
3.808145527
 30
0.0
  0
VERTEX
  5
341
  8
0
  6
CONTINUOUS
 62
     7
 10
7.5117820934
 20
3.8217977993
 30
0.0
  0
VERTEX
  5
342
  8
0
  6
CONTINUOUS
 62
     7
 10
7.59402169
 20
3.838412264
 30
0.0
  0
VERTEX
  5
343
  8
0
  6
CONTINUOUS
 62
     7
 10
7.6744669874
 20
3.8579650515
 30
0.0
  0
VERTEX
  5
344
  8
0
  6
CONTINUOUS
 62
     7
 10
7.7530024134
 20
3.880428002
 30
0.0
  0
VERTEX
  5
345
  8
0
  6
CONTINUOUS
 62
     7
 10
7.8295147429
 20
3.9057688126
 30
0.0
  0
VERTEX
  5
346
  8
0
  6
CONTINUOUS
 62
     7
 10
7.9038938303
 20
3.9339509637
 30
0.0
  0
VERTEX
  5
347
  8
0
  6
CONTINUOUS
 62
     7
 10
7.976032757
 20
3.9649338841
 30
0.0
  0
VERTEX
  5
348
  8
0
  6
CONTINUOUS
 62
     7
 10
8.045827684
 20
3.9986730243
 30
0.0
  0
VERTEX
  5
349
  8
0
  6
CONTINUOUS
 62
     7
 10
8.1131779993
 20
4.0351197833
 30
0.0
  0
VERTEX
  5
34A
  8
0
  6
CONTINUOUS
 62
     7
 10
8.177986904
 20
4.0742217283
 30
0.0
  0
VERTEX
  5
34B
  8
0
  6
CONTINUOUS
 62
     7
 10
8.2401611191
 20
4.1159225674
 30
0.0
  0
VERTEX
  5
34C
  8
0
  6
CONTINUOUS
 62
     7
 10
8.299611179
 20
4.1601622688
 30
0.0
  0
VERTEX
  5
34D
  8
0
  6
CONTINUOUS
 62
     7
 10
8.356251138
 20
4.2068771571
 30
0.0
  0
VERTEX
  5
34E
  8
0
  6
CONTINUOUS
 62
     7
 10
8.4100000371
 20
4.256
 30
0.0
  0
SEQEND
  5
33C
  8
0
  6
CONTINUOUS
 62
     7
  0
POLYLINE
  5
C5
  8
0
  6
CONTINUOUS
 62
     7
 66
     1
 10
0.0
 20
0.0
 30
0.0
  0
VERTEX
  5
350
  8
0
  6
CONTINUOUS
 62
     7
 10
6.4757702081
 20
4.7084545465
 30
0.0
  0
VERTEX
  5
351
  8
0
  6
CONTINUOUS
 62
     7
 10
6.4952889693
 20
4.7158524744
 30
0.0
  0
VERTEX
  5
352
  8
0
  6
CONTINUOUS
 62
     7
 10
6.5736948902
 20
4.7473542038
 30
0.0
  0
VERTEX
  5
353
  8
0
  6
CONTINUOUS
 62
     7
 10
6.6502749789
 20
4.7810268315
 30
0.0
  0
VERTEX
  5
354
  8
0
  6
CONTINUOUS
 62
     7
 10
6.7249091167
 20
4.8168175214
 30
0.0
  0
VERTEX
  5
355
  8
0
  6
CONTINUOUS
 62
     7
 10
6.7974801184
 20
4.8546701008
 30
0.0
  0
VERTEX
  5
356
  8
0
  6
CONTINUOUS
 62
     7
 10
6.8678743185
 20
4.8945252437
 30
0.0
  0
VERTEX
  5
357
  8
0
  6
CONTINUOUS
 62
     7
 10
6.9359811317
 20
4.9363203609
 30
0.0
  0
VERTEX
  5
358
  8
0
  6
CONTINUOUS
 62
     7
 10
7.0016936393
 20
4.9799899297
 30
0.0
  0
VERTEX
  5
359
  8
0
  6
CONTINUOUS
 62
     7
 10
7.0649088824
 20
5.0254653844
 30
0.0
  0
VERTEX
  5
35A
  8
0
  6
CONTINUOUS
 62
     7
 10
7.1255277154
 20
5.0726753724
 30
0.0
  0
VERTEX
  5
35B
  8
0
  6
CONTINUOUS
 62
     7
 10
7.1834548062
 20
5.1215458278
 30
0.0
  0
VERTEX
  5
35C
  8
0
  6
CONTINUOUS
 62
     7
 10
7.2385993692
 20
5.1720001916
 30
0.0
  0
VERTEX
  5
35D
  8
0
  6
CONTINUOUS
 62
     7
 10
7.2908750186
 20
5.2239591181
 30
0.0
  0
VERTEX
  5
35E
  8
0
  6
CONTINUOUS
 62
     7
 10
7.3401996222
 20
5.2773411347
 30
0.0
  0
VERTEX
  5
35F
  8
0
  6
CONTINUOUS
 62
     7
 10
7.3864957407
 20
5.3320625692
 30
0.0
  0
VERTEX
  5
360
  8
0
  6
CONTINUOUS
 62
     7
 10
7.429690775
 20
5.3880374759
 30
0.0
  0
VERTEX
  5
361
  8
0
  6
CONTINUOUS
 62
     7
 10
7.469716966
 20
5.4451781492
 30
0.0
  0
SEQEND
  5
34F
  8
0
  6
CONTINUOUS
 62
     7
  0
LINE
  5
C6
  8
0
  6
CONTINUOUS
 62
     7
 10
8.0080762114
 20
5.756
 30
0.0
 11
7.4697169517
 21
5.4451781365
 31
0.0
  0
POLYLINE
  5
C7
  8
0
  6
CONTINUOUS
 62
     7
 66
     1
 10
0.0
 20
0.0
 30
0.0
  0
VERTEX
  5
363
  8
0
  6
CONTINUOUS
 62
     7
 10
7.1672842597
 20
4.7268629072
 30
0.0
  0
VERTEX
  5
364
  8
0
  6
CONTINUOUS
 62
     7
 10
7.2413434708
 20
4.7750075177
 30
0.0
  0
VERTEX
  5
365
  8
0
  6
CONTINUOUS
 62
     7
 10
7.3127666724
 20
4.825103909
 30
0.0
  0
VERTEX
  5
366
  8
0
  6
CONTINUOUS
 62
     7
 10
7.3814510523
 20
4.8770799586
 30
0.0
  0
VERTEX
  5
367
  8
0
  6
CONTINUOUS
 62
     7
 10
7.4472977583
 20
4.9308609039
 30
0.0
  0
VERTEX
  5
368
  8
0
  6
CONTINUOUS
 62
     7
 10
7.5102120448
 20
4.9863692694
 30
0.0
  0
VERTEX
  5
369
  8
0
  6
CONTINUOUS
 62
     7
 10
7.5701034196
 20
5.0435251224
 30
0.0
  0
VERTEX
  5
36A
  8
0
  6
CONTINUOUS
 62
     7
 10
7.6268856437
 20
5.1022463308
 30
0.0
  0
VERTEX
  5
36B
  8
0
  6
CONTINUOUS
 62
     7
 10
7.6804768779
 20
5.1624482686
 30
0.0
  0
VERTEX
  5
36C
  8
0
  6
CONTINUOUS
 62
     7
 10
7.7307999766
 20
5.2240443304
 30
0.0
  0
VERTEX
  5
36D
  8
0
  6
CONTINUOUS
 62
     7
 10
7.7777827805
 20
5.2869457838
 30
0.0
  0
VERTEX
  5
36E
  8
0
  6
CONTINUOUS
 62
     7
 10
7.8213572371
 20
5.3510622097
 30
0.0
  0
VERTEX
  5
36F
  8
0
  6
CONTINUOUS
 62
     7
 10
7.8614610138
 20
5.4163012094
 30
0.0
  0
VERTEX
  5
370
  8
0
  6
CONTINUOUS
 62
     7
 10
7.8980363247
 20
5.4825689172
 30
0.0
  0
VERTEX
  5
371
  8
0
  6
CONTINUOUS
 62
     7
 10
7.9310300768
 20
5.5497700009
 30
0.0
  0
VERTEX
  5
372
  8
0
  6
CONTINUOUS
 62
     7
 10
7.9603956309
 20
5.6178075883
 30
0.0
  0
VERTEX
  5
373
  8
0
  6
CONTINUOUS
 62
     7
 10
7.9860898675
 20
5.6865839271
 30
0.0
  0
VERTEX
  5
374
  8
0
  6
CONTINUOUS
 62
     7
 10
8.0080761201
 20
5.7560000185
 30
0.0
  0
SEQEND
  5
362
  8
0
  6
CONTINUOUS
 62
     7
  0
POLYLINE
  5
C8
  8
0
  6
CONTINUOUS
 62
     7
 66
     1
 10
0.0
 20
0.0
 30
0.0
  0
VERTEX
  5
376
  8
0
  6
CONTINUOUS
 62
     7
 10
5.8624545465
 20
3.1902297919
 30
0.0
  0
VERTEX
  5
377
  8
0
  6
CONTINUOUS
 62
     7
 10
5.8698524744
 20
3.1707110307
 30
0.0
  0
VERTEX
  5
378
  8
0
  6
CONTINUOUS
 62
     7
 10
5.9013542038
 20
3.0923051098
 30
0.0
  0
VERTEX
  5
379
  8
0
  6
CONTINUOUS
 62
     7
 10
5.9350268315
 20
3.0157250211
 30
0.0
  0
VERTEX
  5
37A
  8
0
  6
CONTINUOUS
 62
     7
 10
5.9708175214
 20
2.9410908833
 30
0.0
  0
VERTEX
  5
37B
  8
0
  6
CONTINUOUS
 62
     7
 10
6.0086701008
 20
2.8685198816
 30
0.0
  0
VERTEX
  5
37C
  8
0
  6
CONTINUOUS
 62
     7
 10
6.0485252437
 20
2.7981256815
 30
0.0
  0
VERTEX
  5
37D
  8
0
  6
CONTINUOUS
 62
     7
 10
6.0903203609
 20
2.7300188683
 30
0.0
  0
VERTEX
  5
37E
  8
0
  6
CONTINUOUS
 62
     7
 10
6.1339899297
 20
2.6643063607
 30
0.0
  0
VERTEX
  5
37F
  8
0
  6
CONTINUOUS
 62
     7
 10
6.1794653844
 20
2.6010911176
 30
0.0
  0
VERTEX
  5
380
  8
0
  6
CONTINUOUS
 62
     7
 10
6.2266753724
 20
2.5404722846
 30
0.0
  0
VERTEX
  5
381
  8
0
  6
CONTINUOUS
 62
     7
 10
6.2755458278
 20
2.4825451938
 30
0.0
  0
VERTEX
  5
382
  8
0
  6
CONTINUOUS
 62
     7
 10
6.3260001916
 20
2.4274006308
 30
0.0
  0
VERTEX
  5
383
  8
0
  6
CONTINUOUS
 62
     7
 10
6.3779591181
 20
2.3751249814
 30
0.0
  0
VERTEX
  5
384
  8
0
  6
CONTINUOUS
 62
     7
 10
6.4313411347
 20
2.3258003778
 30
0.0
  0
VERTEX
  5
385
  8
0
  6
CONTINUOUS
 62
     7
 10
6.4860625692
 20
2.2795042593
 30
0.0
  0
VERTEX
  5
386
  8
0
  6
CONTINUOUS
 62
     7
 10
6.5420374759
 20
2.236309225
 30
0.0
  0
VERTEX
  5
387
  8
0
  6
CONTINUOUS
 62
     7
 10
6.5991781492
 20
2.196283034
 30
0.0
  0
SEQEND
  5
375
  8
0
  6
CONTINUOUS
 62
     7
  0
POLYLINE
  5
C9
  8
0
  6
CONTINUOUS
 62
     7
 66
     1
 10
0.0
 20
0.0
 30
0.0
  0
VERTEX
  5
389
  8
0
  6
CONTINUOUS
 62
     7
 10
5.8808629072
 20
2.4987157403
 30
0.0
  0
VERTEX
  5
38A
  8
0
  6
CONTINUOUS
 62
     7
 10
5.9290075177
 20
2.4246565292
 30
0.0
  0
VERTEX
  5
38B
  8
0
  6
CONTINUOUS
 62
     7
 10
5.979103909
 20
2.3532333276
 30
0.0
  0
VERTEX
  5
38C
  8
0
  6
CONTINUOUS
 62
     7
 10
6.0310799586
 20
2.2845489477
 30
0.0
  0
VERTEX
  5
38D
  8
0
  6
CONTINUOUS
 62
     7
 10
6.0848609039
 20
2.2187022417
 30
0.0
  0
VERTEX
  5
38E
  8
0
  6
CONTINUOUS
 62
     7
 10
6.1403692694
 20
2.1557879552
 30
0.0
  0
VERTEX
  5
38F
  8
0
  6
CONTINUOUS
 62
     7
 10
6.1975251224
 20
2.0958965804
 30
0.0
  0
VERTEX
  5
390
  8
0
  6
CONTINUOUS
 62
     7
 10
6.2562463308
 20
2.0391143563
 30
0.0
  0
VERTEX
  5
391
  8
0
  6
CONTINUOUS
 62
     7
 10
6.3164482686
 20
1.9855231221
 30
0.0
  0
VERTEX
  5
392
  8
0
  6
CONTINUOUS
 62
     7
 10
6.3780443304
 20
1.9352000234
 30
0.0
  0
VERTEX
  5
393
  8
0
  6
CONTINUOUS
 62
     7
 10
6.4409457838
 20
1.8882172195
 30
0.0
  0
VERTEX
  5
394
  8
0
  6
CONTINUOUS
 62
     7
 10
6.5050622097
 20
1.8446427629
 30
0.0
  0
VERTEX
  5
395
  8
0
  6
CONTINUOUS
 62
     7
 10
6.5703012094
 20
1.8045389862
 30
0.0
  0
VERTEX
  5
396
  8
0
  6
CONTINUOUS
 62
     7
 10
6.6365689172
 20
1.7679636753
 30
0.0
  0
VERTEX
  5
397
  8
0
  6
CONTINUOUS
 62
     7
 10
6.7037700009
 20
1.7349699232
 30
0.0
  0
VERTEX
  5
398
  8
0
  6
CONTINUOUS
 62
     7
 10
6.7718075883
 20
1.7056043691
 30
0.0
  0
VERTEX
  5
399
  8
0
  6
CONTINUOUS
 62
     7
 10
6.8405839271
 20
1.6799101325
 30
0.0
  0
VERTEX
  5
39A
  8
0
  6
CONTINUOUS
 62
     7
 10
6.9100000185
 20
1.6579238799
 30
0.0
  0
SEQEND
  5
388
  8
0
  6
CONTINUOUS
 62
     7
  0
POLYLINE
  5
CA
  8
0
  6
CONTINUOUS
 62
     7
 66
     1
 10
0.0
 20
0.0
 30
0.0
  0
VERTEX
  5
39C
  8
0
  6
CONTINUOUS
 62
     7
 10
6.3347222109
 20
3.5592432623
 30
0.0
  0
VERTEX
  5
39D
  8
0
  6
CONTINUOUS
 62
     7
 10
6.3508884308
 20
3.5460384282
 30
0.0
  0
VERTEX
  5
39E
  8
0
  6
CONTINUOUS
 62
     7
 10
6.4173726894
 20
3.4938877373
 30
0.0
  0
VERTEX
  5
39F
  8
0
  6
CONTINUOUS
 62
     7
 10
6.4848240569
 20
3.4444037823
 30
0.0
  0
VERTEX
  5
3A0
  8
0
  6
CONTINUOUS
 62
     7
 10
6.5531367877
 20
3.3976640756
 30
0.0
  0
VERTEX
  5
3A1
  8
0
  6
CONTINUOUS
 62
     7
 10
6.6222035965
 20
3.3537419496
 30
0.0
  0
VERTEX
  5
3A2
  8
0
  6
CONTINUOUS
 62
     7
 10
6.6919162445
 20
3.3127064103
 30
0.0
  0
VERTEX
  5
3A3
  8
0
  6
CONTINUOUS
 62
     7
 10
6.7621652463
 20
3.2746217703
 30
0.0
  0
VERTEX
  5
3A4
  8
0
  6
CONTINUOUS
 62
     7
 10
6.8328404566
 20
3.2395477955
 30
0.0
  0
VERTEX
  5
3A5
  8
0
  6
CONTINUOUS
 62
     7
 10
6.9038309965
 20
3.2075394852
 30
0.0
  0
VERTEX
  5
3A6
  8
0
  6
CONTINUOUS
 62
     7
 10
6.9750254007
 20
3.1786471457
 30
0.0
  0
VERTEX
  5
3A7
  8
0
  6
CONTINUOUS
 62
     7
 10
7.0463120572
 20
3.1529160229
 30
0.0
  0
VERTEX
  5
3A8
  8
0
  6
CONTINUOUS
 62
     7
 10
7.1175790606
 20
3.1303865232
 30
0.0
  0
VERTEX
  5
3A9
  8
0
  6
CONTINUOUS
 62
     7
 10
7.1887146521
 20
3.1110939927
 30
0.0
  0
VERTEX
  5
3AA
  8
0
  6
CONTINUOUS
 62
     7
 10
7.2596072198
 20
3.0950687178
 30
0.0
  0
VERTEX
  5
3AB
  8
0
  6
CONTINUOUS
 62
     7
 10
7.3301452983
 20
3.0823358516
 30
0.0
  0
VERTEX
  5
3AC
  8
0
  6
CONTINUOUS
 62
     7
 10
7.4002185955
 20
3.0729152671
 30
0.0
  0
VERTEX
  5
3AD
  8
0
  6
CONTINUOUS
 62
     7
 10
7.469716966
 20
3.0668218508
 30
0.0
  0
SEQEND
  5
39B
  8
0
  6
CONTINUOUS
 62
     7
  0
POLYLINE
  5
CB
  8
0
  6
CONTINUOUS
 62
     7
 66
     1
 10
0.0
 20
0.0
 30
0.0
  0
VERTEX
  5
3AF
  8
0
  6
CONTINUOUS
 62
     7
 10
6.6964213525
 20
2.9695786475
 30
0.0
  0
VERTEX
  5
3B0
  8
0
  6
CONTINUOUS
 62
     7
 10
6.7751453897
 20
2.9295138837
 30
0.0
  0
VERTEX
  5
3B1
  8
0
  6
CONTINUOUS
 62
     7
 10
6.8542418093
 20
2.8927077222
 30
0.0
  0
VERTEX
  5
3B2
  8
0
  6
CONTINUOUS
 62
     7
 10
6.9335965059
 20
2.8592132558
 30
0.0
  0
VERTEX
  5
3B3
  8
0
  6
CONTINUOUS
 62
     7
 10
7.0130955209
 20
2.8290788839
 30
0.0
  0
VERTEX
  5
3B4
  8
0
  6
CONTINUOUS
 62
     7
 10
7.0926243088
 20
2.8023475794
 30
0.0
  0
VERTEX
  5
3B5
  8
0
  6
CONTINUOUS
 62
     7
 10
7.1720684711
 20
2.7790580618
 30
0.0
  0
VERTEX
  5
3B6
  8
0
  6
CONTINUOUS
 62
     7
 10
7.251313609
 20
2.7592439173
 30
0.0
  0
VERTEX
  5
3B7
  8
0
  6
CONTINUOUS
 62
     7
 10
7.3302456172
 20
2.7429334524
 30
0.0
  0
VERTEX
  5
3B8
  8
0
  6
CONTINUOUS
 62
     7
 10
7.4087509769
 20
2.7301504267
 30
0.0
  0
VERTEX
  5
3B9
  8
0
  6
CONTINUOUS
 62
     7
 10
7.4867166096
 20
2.7209128801
 30
0.0
  0
VERTEX
  5
3BA
  8
0
  6
CONTINUOUS
 62
     7
 10
7.5640303165
 20
2.7152344524
 30
0.0
  0
VERTEX
  5
3BB
  8
0
  6
CONTINUOUS
 62
     7
 10
7.6405807788
 20
2.7131230634
 30
0.0
  0
VERTEX
  5
3BC
  8
0
  6
CONTINUOUS
 62
     7
 10
7.7162579979
 20
2.7145819399
 30
0.0
  0
VERTEX
  5
3BD
  8
0
  6
CONTINUOUS
 62
     7
 10
7.7909527084
 20
2.7196087352
 30
0.0
  0
VERTEX
  5
3BE
  8
0
  6
CONTINUOUS
 62
     7
 10
7.8645576981
 20
2.728196556
 30
0.0
  0
VERTEX
  5
3BF
  8
0
  6
CONTINUOUS
 62
     7
 10
7.9369670749
 20
2.7403327891
 30
0.0
  0
VERTEX
  5
3C0
  8
0
  6
CONTINUOUS
 62
     7
 10
8.0080761201
 20
2.7559999815
 30
0.0
  0
SEQEND
  5
3AE
  8
0
  6
CONTINUOUS
 62
     7
  0
POLYLINE
  5
CC
  8
0
  6
CONTINUOUS
 62
     7
 66
     1
 10
0.0
 20
0.0
 30
0.0
  0
VERTEX
  5
3C2
  8
0
  6
CONTINUOUS
 62
     7
 10
6.9100000185
 20
6.8540761201
 30
0.0
  0
VERTEX
  5
3C3
  8
0
  6
CONTINUOUS
 62
     7
 10
6.8405839271
 20
6.8320898675
 30
0.0
  0
VERTEX
  5
3C4
  8
0
  6
CONTINUOUS
 62
     7
 10
6.7718075883
 20
6.8063956309
 30
0.0
  0
VERTEX
  5
3C5
  8
0
  6
CONTINUOUS
 62
     7
 10
6.7037700009
 20
6.7770300768
 30
0.0
  0
VERTEX
  5
3C6
  8
0
  6
CONTINUOUS
 62
     7
 10
6.6365689172
 20
6.7440363247
 30
0.0
  0
VERTEX
  5
3C7
  8
0
  6
CONTINUOUS
 62
     7
 10
6.5703012094
 20
6.7074610138
 30
0.0
  0
VERTEX
  5
3C8
  8
0
  6
CONTINUOUS
 62
     7
 10
6.5050622097
 20
6.6673572371
 30
0.0
  0
VERTEX
  5
3C9
  8
0
  6
CONTINUOUS
 62
     7
 10
6.4409457838
 20
6.6237827805
 30
0.0
  0
VERTEX
  5
3CA
  8
0
  6
CONTINUOUS
 62
     7
 10
6.3780443304
 20
6.5767999766
 30
0.0
  0
VERTEX
  5
3CB
  8
0
  6
CONTINUOUS
 62
     7
 10
6.3164482686
 20
6.5264768779
 30
0.0
  0
VERTEX
  5
3CC
  8
0
  6
CONTINUOUS
 62
     7
 10
6.2562463308
 20
6.4728856437
 30
0.0
  0
VERTEX
  5
3CD
  8
0
  6
CONTINUOUS
 62
     7
 10
6.1975251224
 20
6.4161034196
 30
0.0
  0
VERTEX
  5
3CE
  8
0
  6
CONTINUOUS
 62
     7
 10
6.1403692694
 20
6.3562120448
 30
0.0
  0
VERTEX
  5
3CF
  8
0
  6
CONTINUOUS
 62
     7
 10
6.0848609039
 20
6.2932977583
 30
0.0
  0
VERTEX
  5
3D0
  8
0
  6
CONTINUOUS
 62
     7
 10
6.0310799586
 20
6.2274510523
 30
0.0
  0
VERTEX
  5
3D1
  8
0
  6
CONTINUOUS
 62
     7
 10
5.979103909
 20
6.1587666724
 30
0.0
  0
VERTEX
  5
3D2
  8
0
  6
CONTINUOUS
 62
     7
 10
5.9290075177
 20
6.0873434708
 30
0.0
  0
VERTEX
  5
3D3
  8
0
  6
CONTINUOUS
 62
     7
 10
5.8808629072
 20
6.0132842597
 30
0.0
  0
SEQEND
  5
3C1
  8
0
  6
CONTINUOUS
 62
     7
  0
POLYLINE
  5
CD
  8
0
  6
CONTINUOUS
 62
     7
 66
     1
 10
0.0
 20
0.0
 30
0.0
  0
VERTEX
  5
3D5
  8
0
  6
CONTINUOUS
 62
     7
 10
6.5991781492
 20
6.315716966
 30
0.0
  0
VERTEX
  5
3D6
  8
0
  6
CONTINUOUS
 62
     7
 10
6.5420374759
 20
6.275690775
 30
0.0
  0
VERTEX
  5
3D7
  8
0
  6
CONTINUOUS
 62
     7
 10
6.4860625692
 20
6.2324957407
 30
0.0
  0
VERTEX
  5
3D8
  8
0
  6
CONTINUOUS
 62
     7
 10
6.4313411347
 20
6.1861996222
 30
0.0
  0
VERTEX
  5
3D9
  8
0
  6
CONTINUOUS
 62
     7
 10
6.3779591181
 20
6.1368750186
 30
0.0
  0
VERTEX
  5
3DA
  8
0
  6
CONTINUOUS
 62
     7
 10
6.3260001916
 20
6.0845993692
 30
0.0
  0
VERTEX
  5
3DB
  8
0
  6
CONTINUOUS
 62
     7
 10
6.2755458278
 20
6.0294548062
 30
0.0
  0
VERTEX
  5
3DC
  8
0
  6
CONTINUOUS
 62
     7
 10
6.2266753724
 20
5.9715277154
 30
0.0
  0
VERTEX
  5
3DD
  8
0
  6
CONTINUOUS
 62
     7
 10
6.1794653844
 20
5.9109088824
 30
0.0
  0
VERTEX
  5
3DE
  8
0
  6
CONTINUOUS
 62
     7
 10
6.1339899297
 20
5.8476936393
 30
0.0
  0
VERTEX
  5
3DF
  8
0
  6
CONTINUOUS
 62
     7
 10
6.0903203609
 20
5.7819811317
 30
0.0
  0
VERTEX
  5
3E0
  8
0
  6
CONTINUOUS
 62
     7
 10
6.0485252437
 20
5.7138743185
 30
0.0
  0
VERTEX
  5
3E1
  8
0
  6
CONTINUOUS
 62
     7
 10
6.0086701008
 20
5.6434801184
 30
0.0
  0
VERTEX
  5
3E2
  8
0
  6
CONTINUOUS
 62
     7
 10
5.9708175214
 20
5.5709091167
 30
0.0
  0
VERTEX
  5
3E3
  8
0
  6
CONTINUOUS
 62
     7
 10
5.9350268315
 20
5.4962749789
 30
0.0
  0
VERTEX
  5
3E4
  8
0
  6
CONTINUOUS
 62
     7
 10
5.9013542038
 20
5.4196948902
 30
0.0
  0
VERTEX
  5
3E5
  8
0
  6
CONTINUOUS
 62
     7
 10
5.8698524744
 20
5.3412889693
 30
0.0
  0
VERTEX
  5
3E6
  8
0
  6
CONTINUOUS
 62
     7
 10
5.8624545465
 20
5.3217702081
 30
0.0
  0
SEQEND
  5
3D4
  8
0
  6
CONTINUOUS
 62
     7
  0
POLYLINE
  5
CE
  8
0
  6
CONTINUOUS
 62
     7
 66
     1
 10
0.0
 20
0.0
 30
0.0
  0
VERTEX
  5
3E8
  8
0
  6
CONTINUOUS
 62
     7
 10
5.41
 20
1.2559999629
 30
0.0
  0
VERTEX
  5
3E9
  8
0
  6
CONTINUOUS
 62
     7
 10
5.4591228429
 20
1.309748862
 30
0.0
  0
VERTEX
  5
3EA
  8
0
  6
CONTINUOUS
 62
     7
 10
5.5058377312
 20
1.366388821
 30
0.0
  0
VERTEX
  5
3EB
  8
0
  6
CONTINUOUS
 62
     7
 10
5.5500774326
 20
1.4258388809
 30
0.0
  0
VERTEX
  5
3EC
  8
0
  6
CONTINUOUS
 62
     7
 10
5.5917782717
 20
1.488013096
 30
0.0
  0
VERTEX
  5
3ED
  8
0
  6
CONTINUOUS
 62
     7
 10
5.6308802167
 20
1.5528220007
 30
0.0
  0
VERTEX
  5
3EE
  8
0
  6
CONTINUOUS
 62
     7
 10
5.6673269757
 20
1.620172316
 30
0.0
  0
VERTEX
  5
3EF
  8
0
  6
CONTINUOUS
 62
     7
 10
5.7010661159
 20
1.689967243
 30
0.0
  0
VERTEX
  5
3F0
  8
0
  6
CONTINUOUS
 62
     7
 10
5.7320490363
 20
1.7621061697
 30
0.0
  0
VERTEX
  5
3F1
  8
0
  6
CONTINUOUS
 62
     7
 10
5.7602311874
 20
1.8364852571
 30
0.0
  0
VERTEX
  5
3F2
  8
0
  6
CONTINUOUS
 62
     7
 10
5.785571998
 20
1.9129975866
 30
0.0
  0
VERTEX
  5
3F3
  8
0
  6
CONTINUOUS
 62
     7
 10
5.8080349485
 20
1.9915330126
 30
0.0
  0
VERTEX
  5
3F4
  8
0
  6
CONTINUOUS
 62
     7
 10
5.827587736
 20
2.07197831
 30
0.0
  0
VERTEX
  5
3F5
  8
0
  6
CONTINUOUS
 62
     7
 10
5.8442022007
 20
2.1542179066
 30
0.0
  0
VERTEX
  5
3F6
  8
0
  6
CONTINUOUS
 62
     7
 10
5.857854473
 20
2.2381332972
 30
0.0
  0
VERTEX
  5
3F7
  8
0
  6
CONTINUOUS
 62
     7
 10
5.8685248631
 20
2.3236037765
 30
0.0
  0
VERTEX
  5
3F8
  8
0
  6
CONTINUOUS
 62
     7
 10
5.8761980078
 20
2.4105062926
 30
0.0
  0
VERTEX
  5
3F9
  8
0
  6
CONTINUOUS
 62
     7
 10
5.8808629072
 20
2.4987157403
 30
0.0
  0
SEQEND
  5
3E7
  8
0
  6
CONTINUOUS
 62
     7
  0
LINE
  5
CF
  8
0
  6
CONTINUOUS
 62
     7
 10
5.41
 20
1.256
 30
0.0
 11
5.41
 21
1.877643727
 31
0.0
  0
POLYLINE
  5
D0
  8
0
  6
CONTINUOUS
 62
     7
 66
     1
 10
0.0
 20
0.0
 30
0.0
  0
VERTEX
  5
3FB
  8
0
  6
CONTINUOUS
 62
     7
 10
5.41
 20
1.8776437016
 30
0.0
  0
VERTEX
  5
3FC
  8
0
  6
CONTINUOUS
 62
     7
 10
5.4394721245
 20
1.9408777178
 30
0.0
  0
VERTEX
  5
3FD
  8
0
  6
CONTINUOUS
 62
     7
 10
5.466350314
 20
2.0062732824
 30
0.0
  0
VERTEX
  5
3FE
  8
0
  6
CONTINUOUS
 62
     7
 10
5.4905923932
 20
2.0737275831
 30
0.0
  0
VERTEX
  5
3FF
  8
0
  6
CONTINUOUS
 62
     7
 10
5.512160339
 20
2.1431348747
 30
0.0
  0
VERTEX
  5
400
  8
0
  6
CONTINUOUS
 62
     7
 10
5.5310202995
 20
2.2143863316
 30
0.0
  0
VERTEX
  5
401
  8
0
  6
CONTINUOUS
 62
     7
 10
5.5471426849
 20
2.2873701951
 30
0.0
  0
VERTEX
  5
402
  8
0
  6
CONTINUOUS
 62
     7
 10
5.5605022047
 20
2.3619717733
 30
0.0
  0
VERTEX
  5
403
  8
0
  6
CONTINUOUS
 62
     7
 10
5.5710779042
 20
2.4380741742
 30
0.0
  0
VERTEX
  5
404
  8
0
  6
CONTINUOUS
 62
     7
 10
5.5788531827
 20
2.5155578657
 30
0.0
  0
VERTEX
  5
405
  8
0
  6
CONTINUOUS
 62
     7
 10
5.5838158304
 20
2.5943014094
 30
0.0
  0
VERTEX
  5
406
  8
0
  6
CONTINUOUS
 62
     7
 10
5.585958074
 20
2.6741811666
 30
0.0
  0
VERTEX
  5
407
  8
0
  6
CONTINUOUS
 62
     7
 10
5.5852765585
 20
2.7550718855
 30
0.0
  0
VERTEX
  5
408
  8
0
  6
CONTINUOUS
 62
     7
 10
5.5817723473
 20
2.8368465542
 30
0.0
  0
VERTEX
  5
409
  8
0
  6
CONTINUOUS
 62
     7
 10
5.575450922
 20
2.9193769874
 30
0.0
  0
VERTEX
  5
40A
  8
0
  6
CONTINUOUS
 62
     7
 10
5.5663222192
 20
3.0025335335
 30
0.0
  0
VERTEX
  5
40B
  8
0
  6
CONTINUOUS
 62
     7
 10
5.554400566
 20
3.0861858805
 30
0.0
  0
VERTEX
  5
40C
  8
0
  6
CONTINUOUS
 62
     7
 10
5.5510479514
 20
3.1067887158
 30
0.0
  0
SEQEND
  5
3FA
  8
0
  6
CONTINUOUS
 62
     7
  0
POLYLINE
  5
D1
  8
0
  6
CONTINUOUS
 62
     7
 66
     1
 10
0.0
 20
0.0
 30
0.0
  0
VERTEX
  5
40E
  8
0
  6
CONTINUOUS
 62
     7
 10
4.9575454535
 20
5.3217702081
 30
0.0
  0
VERTEX
  5
40F
  8
0
  6
CONTINUOUS
 62
     7
 10
4.9501475256
 20
5.3412889693
 30
0.0
  0
VERTEX
  5
410
  8
0
  6
CONTINUOUS
 62
     7
 10
4.9186457962
 20
5.4196948902
 30
0.0
  0
VERTEX
  5
411
  8
0
  6
CONTINUOUS
 62
     7
 10
4.8849731685
 20
5.4962749789
 30
0.0
  0
VERTEX
  5
412
  8
0
  6
CONTINUOUS
 62
     7
 10
4.8491824786
 20
5.5709091167
 30
0.0
  0
VERTEX
  5
413
  8
0
  6
CONTINUOUS
 62
     7
 10
4.8113298992
 20
5.6434801184
 30
0.0
  0
VERTEX
  5
414
  8
0
  6
CONTINUOUS
 62
     7
 10
4.7714747563
 20
5.7138743185
 30
0.0
  0
VERTEX
  5
415
  8
0
  6
CONTINUOUS
 62
     7
 10
4.7296796391
 20
5.7819811317
 30
0.0
  0
VERTEX
  5
416
  8
0
  6
CONTINUOUS
 62
     7
 10
4.6860100703
 20
5.8476936393
 30
0.0
  0
VERTEX
  5
417
  8
0
  6
CONTINUOUS
 62
     7
 10
4.6405346156
 20
5.9109088824
 30
0.0
  0
VERTEX
  5
418
  8
0
  6
CONTINUOUS
 62
     7
 10
4.5933246276
 20
5.9715277154
 30
0.0
  0
VERTEX
  5
419
  8
0
  6
CONTINUOUS
 62
     7
 10
4.5444541722
 20
6.0294548062
 30
0.0
  0
VERTEX
  5
41A
  8
0
  6
CONTINUOUS
 62
     7
 10
4.4939998084
 20
6.0845993692
 30
0.0
  0
VERTEX
  5
41B
  8
0
  6
CONTINUOUS
 62
     7
 10
4.4420408819
 20
6.1368750186
 30
0.0
  0
VERTEX
  5
41C
  8
0
  6
CONTINUOUS
 62
     7
 10
4.3886588653
 20
6.1861996222
 30
0.0
  0
VERTEX
  5
41D
  8
0
  6
CONTINUOUS
 62
     7
 10
4.3339374308
 20
6.2324957407
 30
0.0
  0
VERTEX
  5
41E
  8
0
  6
CONTINUOUS
 62
     7
 10
4.2779625241
 20
6.275690775
 30
0.0
  0
VERTEX
  5
41F
  8
0
  6
CONTINUOUS
 62
     7
 10
4.2208218508
 20
6.315716966
 30
0.0
  0
SEQEND
  5
40D
  8
0
  6
CONTINUOUS
 62
     7
  0
LINE
  5
D2
  8
0
  6
CONTINUOUS
 62
     7
 10
4.2208218635
 20
6.3157169517
 30
0.0
 11
3.91
 21
6.8540762114
 31
0.0
  0
POLYLINE
  5
D3
  8
0
  6
CONTINUOUS
 62
     7
 66
     1
 10
0.0
 20
0.0
 30
0.0
  0
VERTEX
  5
421
  8
0
  6
CONTINUOUS
 62
     7
 10
4.9391370928
 20
6.0132842597
 30
0.0
  0
VERTEX
  5
422
  8
0
  6
CONTINUOUS
 62
     7
 10
4.8909924823
 20
6.0873434708
 30
0.0
  0
VERTEX
  5
423
  8
0
  6
CONTINUOUS
 62
     7
 10
4.840896091
 20
6.1587666724
 30
0.0
  0
VERTEX
  5
424
  8
0
  6
CONTINUOUS
 62
     7
 10
4.7889200414
 20
6.2274510523
 30
0.0
  0
VERTEX
  5
425
  8
0
  6
CONTINUOUS
 62
     7
 10
4.7351390961
 20
6.2932977583
 30
0.0
  0
VERTEX
  5
426
  8
0
  6
CONTINUOUS
 62
     7
 10
4.6796307306
 20
6.3562120448
 30
0.0
  0
VERTEX
  5
427
  8
0
  6
CONTINUOUS
 62
     7
 10
4.6224748776
 20
6.4161034196
 30
0.0
  0
VERTEX
  5
428
  8
0
  6
CONTINUOUS
 62
     7
 10
4.5637536692
 20
6.4728856437
 30
0.0
  0
VERTEX
  5
429
  8
0
  6
CONTINUOUS
 62
     7
 10
4.5035517314
 20
6.5264768779
 30
0.0
  0
VERTEX
  5
42A
  8
0
  6
CONTINUOUS
 62
     7
 10
4.4419556696
 20
6.5767999766
 30
0.0
  0
VERTEX
  5
42B
  8
0
  6
CONTINUOUS
 62
     7
 10
4.3790542162
 20
6.6237827805
 30
0.0
  0
VERTEX
  5
42C
  8
0
  6
CONTINUOUS
 62
     7
 10
4.3149377903
 20
6.6673572371
 30
0.0
  0
VERTEX
  5
42D
  8
0
  6
CONTINUOUS
 62
     7
 10
4.2496987906
 20
6.7074610138
 30
0.0
  0
VERTEX
  5
42E
  8
0
  6
CONTINUOUS
 62
     7
 10
4.1834310828
 20
6.7440363247
 30
0.0
  0
VERTEX
  5
42F
  8
0
  6
CONTINUOUS
 62
     7
 10
4.1162299991
 20
6.7770300768
 30
0.0
  0
VERTEX
  5
430
  8
0
  6
CONTINUOUS
 62
     7
 10
4.0481924117
 20
6.8063956309
 30
0.0
  0
VERTEX
  5
431
  8
0
  6
CONTINUOUS
 62
     7
 10
3.9794160729
 20
6.8320898675
 30
0.0
  0
VERTEX
  5
432
  8
0
  6
CONTINUOUS
 62
     7
 10
3.9099999815
 20
6.8540761201
 30
0.0
  0
SEQEND
  5
420
  8
0
  6
CONTINUOUS
 62
     7
  0
POLYLINE
  5
D4
  8
0
  6
CONTINUOUS
 62
     7
 66
     1
 10
0.0
 20
0.0
 30
0.0
  0
VERTEX
  5
434
  8
0
  6
CONTINUOUS
 62
     7
 10
8.0080761201
 20
5.7560000185
 30
0.0
  0
VERTEX
  5
435
  8
0
  6
CONTINUOUS
 62
     7
 10
7.9369670749
 20
5.7716672109
 30
0.0
  0
VERTEX
  5
436
  8
0
  6
CONTINUOUS
 62
     7
 10
7.8645576981
 20
5.783803444
 30
0.0
  0
VERTEX
  5
437
  8
0
  6
CONTINUOUS
 62
     7
 10
7.7909527084
 20
5.7923912648
 30
0.0
  0
VERTEX
  5
438
  8
0
  6
CONTINUOUS
 62
     7
 10
7.7162579979
 20
5.7974180601
 30
0.0
  0
VERTEX
  5
439
  8
0
  6
CONTINUOUS
 62
     7
 10
7.6405807788
 20
5.7988769366
 30
0.0
  0
VERTEX
  5
43A
  8
0
  6
CONTINUOUS
 62
     7
 10
7.5640303165
 20
5.7967655476
 30
0.0
  0
VERTEX
  5
43B
  8
0
  6
CONTINUOUS
 62
     7
 10
7.4867166096
 20
5.7910871199
 30
0.0
  0
VERTEX
  5
43C
  8
0
  6
CONTINUOUS
 62
     7
 10
7.4087509769
 20
5.7818495733
 30
0.0
  0
VERTEX
  5
43D
  8
0
  6
CONTINUOUS
 62
     7
 10
7.3302456172
 20
5.7690665476
 30
0.0
  0
VERTEX
  5
43E
  8
0
  6
CONTINUOUS
 62
     7
 10
7.251313609
 20
5.7527560827
 30
0.0
  0
VERTEX
  5
43F
  8
0
  6
CONTINUOUS
 62
     7
 10
7.1720684711
 20
5.7329419382
 30
0.0
  0
VERTEX
  5
440
  8
0
  6
CONTINUOUS
 62
     7
 10
7.0926243088
 20
5.7096524206
 30
0.0
  0
VERTEX
  5
441
  8
0
  6
CONTINUOUS
 62
     7
 10
7.0130955209
 20
5.6829211161
 30
0.0
  0
VERTEX
  5
442
  8
0
  6
CONTINUOUS
 62
     7
 10
6.9335965059
 20
5.6527867442
 30
0.0
  0
VERTEX
  5
443
  8
0
  6
CONTINUOUS
 62
     7
 10
6.8542418093
 20
5.6192922778
 30
0.0
  0
VERTEX
  5
444
  8
0
  6
CONTINUOUS
 62
     7
 10
6.7751453897
 20
5.5824861163
 30
0.0
  0
VERTEX
  5
445
  8
0
  6
CONTINUOUS
 62
     7
 10
6.6964213525
 20
5.5424213525
 30
0.0
  0
SEQEND
  5
433
  8
0
  6
CONTINUOUS
 62
     7
  0
POLYLINE
  5
D5
  8
0
  6
CONTINUOUS
 62
     7
 66
     1
 10
0.0
 20
0.0
 30
0.0
  0
VERTEX
  5
447
  8
0
  6
CONTINUOUS
 62
     7
 10
7.469716966
 20
5.4451781492
 30
0.0
  0
VERTEX
  5
448
  8
0
  6
CONTINUOUS
 62
     7
 10
7.4002185955
 20
5.4390847329
 30
0.0
  0
VERTEX
  5
449
  8
0
  6
CONTINUOUS
 62
     7
 10
7.3301452983
 20
5.4296641484
 30
0.0
  0
VERTEX
  5
44A
  8
0
  6
CONTINUOUS
 62
     7
 10
7.2596072198
 20
5.4169312822
 30
0.0
  0
VERTEX
  5
44B
  8
0
  6
CONTINUOUS
 62
     7
 10
7.1887146521
 20
5.4009060073
 30
0.0
  0
VERTEX
  5
44C
  8
0
  6
CONTINUOUS
 62
     7
 10
7.1175790606
 20
5.3816134768
 30
0.0
  0
VERTEX
  5
44D
  8
0
  6
CONTINUOUS
 62
     7
 10
7.0463120572
 20
5.3590839771
 30
0.0
  0
VERTEX
  5
44E
  8
0
  6
CONTINUOUS
 62
     7
 10
6.9750254007
 20
5.3333528543
 30
0.0
  0
VERTEX
  5
44F
  8
0
  6
CONTINUOUS
 62
     7
 10
6.9038309965
 20
5.3044605148
 30
0.0
  0
VERTEX
  5
450
  8
0
  6
CONTINUOUS
 62
     7
 10
6.8328404566
 20
5.2724522045
 30
0.0
  0
VERTEX
  5
451
  8
0
  6
CONTINUOUS
 62
     7
 10
6.7621652463
 20
5.2373782297
 30
0.0
  0
VERTEX
  5
452
  8
0
  6
CONTINUOUS
 62
     7
 10
6.6919162445
 20
5.1992935897
 30
0.0
  0
VERTEX
  5
453
  8
0
  6
CONTINUOUS
 62
     7
 10
6.6222035965
 20
5.1582580504
 30
0.0
  0
VERTEX
  5
454
  8
0
  6
CONTINUOUS
 62
     7
 10
6.5531367877
 20
5.1143359244
 30
0.0
  0
VERTEX
  5
455
  8
0
  6
CONTINUOUS
 62
     7
 10
6.4848240569
 20
5.0675962177
 30
0.0
  0
VERTEX
  5
456
  8
0
  6
CONTINUOUS
 62
     7
 10
6.4173726894
 20
5.0181122627
 30
0.0
  0
VERTEX
  5
457
  8
0
  6
CONTINUOUS
 62
     7
 10
6.3508884308
 20
4.9659615718
 30
0.0
  0
VERTEX
  5
458
  8
0
  6
CONTINUOUS
 62
     7
 10
6.3347222109
 20
4.9527567377
 30
0.0
  0
SEQEND
  5
446
  8
0
  6
CONTINUOUS
 62
     7
  0
POLYLINE
  5
D6
  8
0
  6
CONTINUOUS
 62
     7
 66
     1
 10
0.0
 20
0.0
 30
0.0
  0
VERTEX
  5
45A
  8
0
  6
CONTINUOUS
 62
     7
 10
5.41
 20
7.2560000371
 30
0.0
  0
VERTEX
  5
45B
  8
0
  6
CONTINUOUS
 62
     7
 10
5.3608771571
 20
7.202251138
 30
0.0
  0
VERTEX
  5
45C
  8
0
  6
CONTINUOUS
 62
     7
 10
5.3141622688
 20
7.145611179
 30
0.0
  0
VERTEX
  5
45D
  8
0
  6
CONTINUOUS
 62
     7
 10
5.2699225674
 20
7.0861611191
 30
0.0
  0
VERTEX
  5
45E
  8
0
  6
CONTINUOUS
 62
     7
 10
5.2282217283
 20
7.023986904
 30
0.0
  0
VERTEX
  5
45F
  8
0
  6
CONTINUOUS
 62
     7
 10
5.1891197833
 20
6.9591779993
 30
0.0
  0
VERTEX
  5
460
  8
0
  6
CONTINUOUS
 62
     7
 10
5.1526730243
 20
6.891827684
 30
0.0
  0
VERTEX
  5
461
  8
0
  6
CONTINUOUS
 62
     7
 10
5.1189338841
 20
6.822032757
 30
0.0
  0
VERTEX
  5
462
  8
0
  6
CONTINUOUS
 62
     7
 10
5.0879509637
 20
6.7498938303
 30
0.0
  0
VERTEX
  5
463
  8
0
  6
CONTINUOUS
 62
     7
 10
5.0597688126
 20
6.6755147429
 30
0.0
  0
VERTEX
  5
464
  8
0
  6
CONTINUOUS
 62
     7
 10
5.034428002
 20
6.5990024134
 30
0.0
  0
VERTEX
  5
465
  8
0
  6
CONTINUOUS
 62
     7
 10
5.0119650515
 20
6.5204669874
 30
0.0
  0
VERTEX
  5
466
  8
0
  6
CONTINUOUS
 62
     7
 10
4.992412264
 20
6.44002169
 30
0.0
  0
VERTEX
  5
467
  8
0
  6
CONTINUOUS
 62
     7
 10
4.9757977993
 20
6.3577820934
 30
0.0
  0
VERTEX
  5
468
  8
0
  6
CONTINUOUS
 62
     7
 10
4.962145527
 20
6.2738667028
 30
0.0
  0
VERTEX
  5
469
  8
0
  6
CONTINUOUS
 62
     7
 10
4.9514751369
 20
6.1883962235
 30
0.0
  0
VERTEX
  5
46A
  8
0
  6
CONTINUOUS
 62
     7
 10
4.9438019922
 20
6.1014937074
 30
0.0
  0
VERTEX
  5
46B
  8
0
  6
CONTINUOUS
 62
     7
 10
4.9391370928
 20
6.0132842597
 30
0.0
  0
SEQEND
  5
459
  8
0
  6
CONTINUOUS
 62
     7
  0
POLYLINE
  5
D7
  8
0
  6
CONTINUOUS
 62
     7
 66
     1
 10
0.0
 20
0.0
 30
0.0
  0
VERTEX
  5
46D
  8
0
  6
CONTINUOUS
 62
     7
 10
5.41
 20
6.6343562984
 30
0.0
  0
VERTEX
  5
46E
  8
0
  6
CONTINUOUS
 62
     7
 10
5.3805278755
 20
6.5711222822
 30
0.0
  0
VERTEX
  5
46F
  8
0
  6
CONTINUOUS
 62
     7
 10
5.353649686
 20
6.5057267176
 30
0.0
  0
VERTEX
  5
470
  8
0
  6
CONTINUOUS
 62
     7
 10
5.3294076068
 20
6.4382724169
 30
0.0
  0
VERTEX
  5
471
  8
0
  6
CONTINUOUS
 62
     7
 10
5.307839661
 20
6.3688651253
 30
0.0
  0
VERTEX
  5
472
  8
0
  6
CONTINUOUS
 62
     7
 10
5.2889797005
 20
6.2976136684
 30
0.0
  0
VERTEX
  5
473
  8
0
  6
CONTINUOUS
 62
     7
 10
5.2728573151
 20
6.2246298049
 30
0.0
  0
VERTEX
  5
474
  8
0
  6
CONTINUOUS
 62
     7
 10
5.2594977953
 20
6.1500282267
 30
0.0
  0
VERTEX
  5
475
  8
0
  6
CONTINUOUS
 62
     7
 10
5.2489220958
 20
6.0739258258
 30
0.0
  0
VERTEX
  5
476
  8
0
  6
CONTINUOUS
 62
     7
 10
5.2411468173
 20
5.9964421343
 30
0.0
  0
VERTEX
  5
477
  8
0
  6
CONTINUOUS
 62
     7
 10
5.2361841696
 20
5.9176985906
 30
0.0
  0
VERTEX
  5
478
  8
0
  6
CONTINUOUS
 62
     7
 10
5.234041926
 20
5.8378188334
 30
0.0
  0
VERTEX
  5
479
  8
0
  6
CONTINUOUS
 62
     7
 10
5.2347234415
 20
5.7569281145
 30
0.0
  0
VERTEX
  5
47A
  8
0
  6
CONTINUOUS
 62
     7
 10
5.2382276527
 20
5.6751534458
 30
0.0
  0
VERTEX
  5
47B
  8
0
  6
CONTINUOUS
 62
     7
 10
5.244549078
 20
5.5926230126
 30
0.0
  0
VERTEX
  5
47C
  8
0
  6
CONTINUOUS
 62
     7
 10
5.2536777808
 20
5.5094664665
 30
0.0
  0
VERTEX
  5
47D
  8
0
  6
CONTINUOUS
 62
     7
 10
5.265599434
 20
5.4258141195
 30
0.0
  0
VERTEX
  5
47E
  8
0
  6
CONTINUOUS
 62
     7
 10
5.2689520486
 20
5.4052112842
 30
0.0
  0
SEQEND
  5
46C
  8
0
  6
CONTINUOUS
 62
     7
  0
POLYLINE
  5
D8
  8
0
  6
CONTINUOUS
 62
     7
 66
     1
 10
0.0
 20
0.0
 30
0.0
  0
VERTEX
  5
480
  8
0
  6
CONTINUOUS
 62
     7
 10
2.4099999629
 20
4.256
 30
0.0
  0
VERTEX
  5
481
  8
0
  6
CONTINUOUS
 62
     7
 10
2.463748862
 20
4.2068771571
 30
0.0
  0
VERTEX
  5
482
  8
0
  6
CONTINUOUS
 62
     7
 10
2.520388821
 20
4.1601622688
 30
0.0
  0
VERTEX
  5
483
  8
0
  6
CONTINUOUS
 62
     7
 10
2.5798388809
 20
4.1159225674
 30
0.0
  0
VERTEX
  5
484
  8
0
  6
CONTINUOUS
 62
     7
 10
2.642013096
 20
4.0742217283
 30
0.0
  0
VERTEX
  5
485
  8
0
  6
CONTINUOUS
 62
     7
 10
2.7068220007
 20
4.0351197833
 30
0.0
  0
VERTEX
  5
486
  8
0
  6
CONTINUOUS
 62
     7
 10
2.774172316
 20
3.9986730243
 30
0.0
  0
VERTEX
  5
487
  8
0
  6
CONTINUOUS
 62
     7
 10
2.843967243
 20
3.9649338841
 30
0.0
  0
VERTEX
  5
488
  8
0
  6
CONTINUOUS
 62
     7
 10
2.9161061697
 20
3.9339509637
 30
0.0
  0
VERTEX
  5
489
  8
0
  6
CONTINUOUS
 62
     7
 10
2.9904852571
 20
3.9057688126
 30
0.0
  0
VERTEX
  5
48A
  8
0
  6
CONTINUOUS
 62
     7
 10
3.0669975866
 20
3.880428002
 30
0.0
  0
VERTEX
  5
48B
  8
0
  6
CONTINUOUS
 62
     7
 10
3.1455330126
 20
3.8579650515
 30
0.0
  0
VERTEX
  5
48C
  8
0
  6
CONTINUOUS
 62
     7
 10
3.22597831
 20
3.838412264
 30
0.0
  0
VERTEX
  5
48D
  8
0
  6
CONTINUOUS
 62
     7
 10
3.3082179066
 20
3.8217977993
 30
0.0
  0
VERTEX
  5
48E
  8
0
  6
CONTINUOUS
 62
     7
 10
3.3921332972
 20
3.808145527
 30
0.0
  0
VERTEX
  5
48F
  8
0
  6
CONTINUOUS
 62
     7
 10
3.4776037765
 20
3.7974751369
 30
0.0
  0
VERTEX
  5
490
  8
0
  6
CONTINUOUS
 62
     7
 10
3.5645062926
 20
3.7898019922
 30
0.0
  0
VERTEX
  5
491
  8
0
  6
CONTINUOUS
 62
     7
 10
3.6527157403
 20
3.7851370928
 30
0.0
  0
SEQEND
  5
47F
  8
0
  6
CONTINUOUS
 62
     7
  0
LINE
  5
D9
  8
0
  6
CONTINUOUS
 62
     7
 10
3.031643727
 20
4.256
 30
0.0
 11
2.41
 21
4.256
 31
0.0
  0
POLYLINE
  5
DA
  8
0
  6
CONTINUOUS
 62
     7
 66
     1
 10
0.0
 20
0.0
 30
0.0
  0
VERTEX
  5
493
  8
0
  6
CONTINUOUS
 62
     7
 10
3.0316437016
 20
4.256
 30
0.0
  0
VERTEX
  5
494
  8
0
  6
CONTINUOUS
 62
     7
 10
3.0948777178
 20
4.2265278755
 30
0.0
  0
VERTEX
  5
495
  8
0
  6
CONTINUOUS
 62
     7
 10
3.1602732824
 20
4.199649686
 30
0.0
  0
VERTEX
  5
496
  8
0
  6
CONTINUOUS
 62
     7
 10
3.2277275831
 20
4.1754076068
 30
0.0
  0
VERTEX
  5
497
  8
0
  6
CONTINUOUS
 62
     7
 10
3.2971348747
 20
4.153839661
 30
0.0
  0
VERTEX
  5
498
  8
0
  6
CONTINUOUS
 62
     7
 10
3.3683863316
 20
4.1349797005
 30
0.0
  0
VERTEX
  5
499
  8
0
  6
CONTINUOUS
 62
     7
 10
3.4413701951
 20
4.1188573151
 30
0.0
  0
VERTEX
  5
49A
  8
0
  6
CONTINUOUS
 62
     7
 10
3.5159717733
 20
4.1054977953
 30
0.0
  0
VERTEX
  5
49B
  8
0
  6
CONTINUOUS
 62
     7
 10
3.5920741742
 20
4.0949220958
 30
0.0
  0
VERTEX
  5
49C
  8
0
  6
CONTINUOUS
 62
     7
 10
3.6695578657
 20
4.0871468173
 30
0.0
  0
VERTEX
  5
49D
  8
0
  6
CONTINUOUS
 62
     7
 10
3.7483014094
 20
4.0821841696
 30
0.0
  0
VERTEX
  5
49E
  8
0
  6
CONTINUOUS
 62
     7
 10
3.8281811666
 20
4.080041926
 30
0.0
  0
VERTEX
  5
49F
  8
0
  6
CONTINUOUS
 62
     7
 10
3.9090718855
 20
4.0807234415
 30
0.0
  0
VERTEX
  5
4A0
  8
0
  6
CONTINUOUS
 62
     7
 10
3.9908465542
 20
4.0842276527
 30
0.0
  0
VERTEX
  5
4A1
  8
0
  6
CONTINUOUS
 62
     7
 10
4.0733769874
 20
4.090549078
 30
0.0
  0
VERTEX
  5
4A2
  8
0
  6
CONTINUOUS
 62
     7
 10
4.1565335335
 20
4.0996777808
 30
0.0
  0
VERTEX
  5
4A3
  8
0
  6
CONTINUOUS
 62
     7
 10
4.2401858805
 20
4.111599434
 30
0.0
  0
VERTEX
  5
4A4
  8
0
  6
CONTINUOUS
 62
     7
 10
4.2607887158
 20
4.1149520486
 30
0.0
  0
SEQEND
  5
492
  8
0
  6
CONTINUOUS
 62
     7
  0
POLYLINE
  5
DB
  8
0
  6
CONTINUOUS
 62
     7
 66
     1
 10
0.0
 20
0.0
 30
0.0
  0
VERTEX
  5
4A6
  8
0
  6
CONTINUOUS
 62
     7
 10
4.3442297919
 20
3.8035454535
 30
0.0
  0
VERTEX
  5
4A7
  8
0
  6
CONTINUOUS
 62
     7
 10
4.3247110307
 20
3.7961475256
 30
0.0
  0
VERTEX
  5
4A8
  8
0
  6
CONTINUOUS
 62
     7
 10
4.2463051098
 20
3.7646457962
 30
0.0
  0
VERTEX
  5
4A9
  8
0
  6
CONTINUOUS
 62
     7
 10
4.1697250211
 20
3.7309731685
 30
0.0
  0
VERTEX
  5
4AA
  8
0
  6
CONTINUOUS
 62
     7
 10
4.0950908833
 20
3.6951824786
 30
0.0
  0
VERTEX
  5
4AB
  8
0
  6
CONTINUOUS
 62
     7
 10
4.0225198816
 20
3.6573298992
 30
0.0
  0
VERTEX
  5
4AC
  8
0
  6
CONTINUOUS
 62
     7
 10
3.9521256815
 20
3.6174747563
 30
0.0
  0
VERTEX
  5
4AD
  8
0
  6
CONTINUOUS
 62
     7
 10
3.8840188683
 20
3.5756796391
 30
0.0
  0
VERTEX
  5
4AE
  8
0
  6
CONTINUOUS
 62
     7
 10
3.8183063607
 20
3.5320100703
 30
0.0
  0
VERTEX
  5
4AF
  8
0
  6
CONTINUOUS
 62
     7
 10
3.7550911176
 20
3.4865346156
 30
0.0
  0
VERTEX
  5
4B0
  8
0
  6
CONTINUOUS
 62
     7
 10
3.6944722846
 20
3.4393246276
 30
0.0
  0
VERTEX
  5
4B1
  8
0
  6
CONTINUOUS
 62
     7
 10
3.6365451938
 20
3.3904541722
 30
0.0
  0
VERTEX
  5
4B2
  8
0
  6
CONTINUOUS
 62
     7
 10
3.5814006308
 20
3.3399998084
 30
0.0
  0
VERTEX
  5
4B3
  8
0
  6
CONTINUOUS
 62
     7
 10
3.5291249814
 20
3.2880408819
 30
0.0
  0
VERTEX
  5
4B4
  8
0
  6
CONTINUOUS
 62
     7
 10
3.4798003778
 20
3.2346588653
 30
0.0
  0
VERTEX
  5
4B5
  8
0
  6
CONTINUOUS
 62
     7
 10
3.4335042593
 20
3.1799374308
 30
0.0
  0
VERTEX
  5
4B6
  8
0
  6
CONTINUOUS
 62
     7
 10
3.390309225
 20
3.1239625241
 30
0.0
  0
VERTEX
  5
4B7
  8
0
  6
CONTINUOUS
 62
     7
 10
3.350283034
 20
3.0668218508
 30
0.0
  0
SEQEND
  5
4A5
  8
0
  6
CONTINUOUS
 62
     7
  0
LINE
  5
DC
  8
0
  6
CONTINUOUS
 62
     7
 10
3.3502830483
 20
3.0668218635
 30
0.0
 11
2.8119237886
 21
2.756
 31
0.0
  0
POLYLINE
  5
DD
  8
0
  6
CONTINUOUS
 62
     7
 66
     1
 10
0.0
 20
0.0
 30
0.0
  0
VERTEX
  5
4B9
  8
0
  6
CONTINUOUS
 62
     7
 10
3.6527157403
 20
3.7851370928
 30
0.0
  0
VERTEX
  5
4BA
  8
0
  6
CONTINUOUS
 62
     7
 10
3.5786565292
 20
3.7369924823
 30
0.0
  0
VERTEX
  5
4BB
  8
0
  6
CONTINUOUS
 62
     7
 10
3.5072333276
 20
3.686896091
 30
0.0
  0
VERTEX
  5
4BC
  8
0
  6
CONTINUOUS
 62
     7
 10
3.4385489477
 20
3.6349200414
 30
0.0
  0
VERTEX
  5
4BD
  8
0
  6
CONTINUOUS
 62
     7
 10
3.3727022417
 20
3.5811390961
 30
0.0
  0
VERTEX
  5
4BE
  8
0
  6
CONTINUOUS
 62
     7
 10
3.3097879552
 20
3.5256307306
 30
0.0
  0
VERTEX
  5
4BF
  8
0
  6
CONTINUOUS
 62
     7
 10
3.2498965804
 20
3.4684748776
 30
0.0
  0
VERTEX
  5
4C0
  8
0
  6
CONTINUOUS
 62
     7
 10
3.1931143563
 20
3.4097536692
 30
0.0
  0
VERTEX
  5
4C1
  8
0
  6
CONTINUOUS
 62
     7
 10
3.1395231221
 20
3.3495517314
 30
0.0
  0
VERTEX
  5
4C2
  8
0
  6
CONTINUOUS
 62
     7
 10
3.0892000234
 20
3.2879556696
 30
0.0
  0
VERTEX
  5
4C3
  8
0
  6
CONTINUOUS
 62
     7
 10
3.0422172195
 20
3.2250542162
 30
0.0
  0
VERTEX
  5
4C4
  8
0
  6
CONTINUOUS
 62
     7
 10
2.9986427629
 20
3.1609377903
 30
0.0
  0
VERTEX
  5
4C5
  8
0
  6
CONTINUOUS
 62
     7
 10
2.9585389862
 20
3.0956987906
 30
0.0
  0
VERTEX
  5
4C6
  8
0
  6
CONTINUOUS
 62
     7
 10
2.9219636753
 20
3.0294310828
 30
0.0
  0
VERTEX
  5
4C7
  8
0
  6
CONTINUOUS
 62
     7
 10
2.8889699232
 20
2.9622299991
 30
0.0
  0
VERTEX
  5
4C8
  8
0
  6
CONTINUOUS
 62
     7
 10
2.8596043691
 20
2.8941924117
 30
0.0
  0
VERTEX
  5
4C9
  8
0
  6
CONTINUOUS
 62
     7
 10
2.8339101325
 20
2.8254160729
 30
0.0
  0
VERTEX
  5
4CA
  8
0
  6
CONTINUOUS
 62
     7
 10
2.8119238799
 20
2.7559999815
 30
0.0
  0
SEQEND
  5
4B8
  8
0
  6
CONTINUOUS
 62
     7
  0
POLYLINE
  5
DE
  8
0
  6
CONTINUOUS
 62
     7
 66
     1
 10
0.0
 20
0.0
 30
0.0
  0
VERTEX
  5
4CC
  8
0
  6
CONTINUOUS
 62
     7
 10
5.2689520486
 20
3.1067887158
 30
0.0
  0
VERTEX
  5
4CD
  8
0
  6
CONTINUOUS
 62
     7
 10
5.265599434
 20
3.0861858805
 30
0.0
  0
VERTEX
  5
4CE
  8
0
  6
CONTINUOUS
 62
     7
 10
5.2536777808
 20
3.0025335335
 30
0.0
  0
VERTEX
  5
4CF
  8
0
  6
CONTINUOUS
 62
     7
 10
5.244549078
 20
2.9193769874
 30
0.0
  0
VERTEX
  5
4D0
  8
0
  6
CONTINUOUS
 62
     7
 10
5.2382276527
 20
2.8368465542
 30
0.0
  0
VERTEX
  5
4D1
  8
0
  6
CONTINUOUS
 62
     7
 10
5.2347234415
 20
2.7550718855
 30
0.0
  0
VERTEX
  5
4D2
  8
0
  6
CONTINUOUS
 62
     7
 10
5.234041926
 20
2.6741811666
 30
0.0
  0
VERTEX
  5
4D3
  8
0
  6
CONTINUOUS
 62
     7
 10
5.2361841696
 20
2.5943014094
 30
0.0
  0
VERTEX
  5
4D4
  8
0
  6
CONTINUOUS
 62
     7
 10
5.2411468173
 20
2.5155578657
 30
0.0
  0
VERTEX
  5
4D5
  8
0
  6
CONTINUOUS
 62
     7
 10
5.2489220958
 20
2.4380741742
 30
0.0
  0
VERTEX
  5
4D6
  8
0
  6
CONTINUOUS
 62
     7
 10
5.2594977953
 20
2.3619717733
 30
0.0
  0
VERTEX
  5
4D7
  8
0
  6
CONTINUOUS
 62
     7
 10
5.2728573151
 20
2.2873701951
 30
0.0
  0
VERTEX
  5
4D8
  8
0
  6
CONTINUOUS
 62
     7
 10
5.2889797005
 20
2.2143863316
 30
0.0
  0
VERTEX
  5
4D9
  8
0
  6
CONTINUOUS
 62
     7
 10
5.307839661
 20
2.1431348747
 30
0.0
  0
VERTEX
  5
4DA
  8
0
  6
CONTINUOUS
 62
     7
 10
5.3294076068
 20
2.0737275831
 30
0.0
  0
VERTEX
  5
4DB
  8
0
  6
CONTINUOUS
 62
     7
 10
5.353649686
 20
2.0062732824
 30
0.0
  0
VERTEX
  5
4DC
  8
0
  6
CONTINUOUS
 62
     7
 10
5.3805278755
 20
1.9408777178
 30
0.0
  0
VERTEX
  5
4DD
  8
0
  6
CONTINUOUS
 62
     7
 10
5.41
 20
1.8776437016
 30
0.0
  0
SEQEND
  5
4CB
  8
0
  6
CONTINUOUS
 62
     7
  0
POLYLINE
  5
DF
  8
0
  6
CONTINUOUS
 62
     7
 66
     1
 10
0.0
 20
0.0
 30
0.0
  0
VERTEX
  5
4DF
  8
0
  6
CONTINUOUS
 62
     7
 10
4.9391370928
 20
2.4987157403
 30
0.0
  0
VERTEX
  5
4E0
  8
0
  6
CONTINUOUS
 62
     7
 10
4.9438019922
 20
2.4105062926
 30
0.0
  0
VERTEX
  5
4E1
  8
0
  6
CONTINUOUS
 62
     7
 10
4.9514751369
 20
2.3236037765
 30
0.0
  0
VERTEX
  5
4E2
  8
0
  6
CONTINUOUS
 62
     7
 10
4.962145527
 20
2.2381332972
 30
0.0
  0
VERTEX
  5
4E3
  8
0
  6
CONTINUOUS
 62
     7
 10
4.9757977993
 20
2.1542179066
 30
0.0
  0
VERTEX
  5
4E4
  8
0
  6
CONTINUOUS
 62
     7
 10
4.992412264
 20
2.07197831
 30
0.0
  0
VERTEX
  5
4E5
  8
0
  6
CONTINUOUS
 62
     7
 10
5.0119650515
 20
1.9915330126
 30
0.0
  0
VERTEX
  5
4E6
  8
0
  6
CONTINUOUS
 62
     7
 10
5.034428002
 20
1.9129975866
 30
0.0
  0
VERTEX
  5
4E7
  8
0
  6
CONTINUOUS
 62
     7
 10
5.0597688126
 20
1.8364852571
 30
0.0
  0
VERTEX
  5
4E8
  8
0
  6
CONTINUOUS
 62
     7
 10
5.0879509637
 20
1.7621061697
 30
0.0
  0
VERTEX
  5
4E9
  8
0
  6
CONTINUOUS
 62
     7
 10
5.1189338841
 20
1.689967243
 30
0.0
  0
VERTEX
  5
4EA
  8
0
  6
CONTINUOUS
 62
     7
 10
5.1526730243
 20
1.620172316
 30
0.0
  0
VERTEX
  5
4EB
  8
0
  6
CONTINUOUS
 62
     7
 10
5.1891197833
 20
1.5528220007
 30
0.0
  0
VERTEX
  5
4EC
  8
0
  6
CONTINUOUS
 62
     7
 10
5.2282217283
 20
1.488013096
 30
0.0
  0
VERTEX
  5
4ED
  8
0
  6
CONTINUOUS
 62
     7
 10
5.2699225674
 20
1.4258388809
 30
0.0
  0
VERTEX
  5
4EE
  8
0
  6
CONTINUOUS
 62
     7
 10
5.3141622688
 20
1.366388821
 30
0.0
  0
VERTEX
  5
4EF
  8
0
  6
CONTINUOUS
 62
     7
 10
5.3608771571
 20
1.309748862
 30
0.0
  0
VERTEX
  5
4F0
  8
0
  6
CONTINUOUS
 62
     7
 10
5.41
 20
1.2559999629
 30
0.0
  0
SEQEND
  5
4DE
  8
0
  6
CONTINUOUS
 62
     7
  0
POLYLINE
  5
E0
  8
0
  6
CONTINUOUS
 62
     7
 66
     1
 10
0.0
 20
0.0
 30
0.0
  0
VERTEX
  5
4F2
  8
0
  6
CONTINUOUS
 62
     7
 10
4.4852777891
 20
4.9527567377
 30
0.0
  0
VERTEX
  5
4F3
  8
0
  6
CONTINUOUS
 62
     7
 10
4.4691115692
 20
4.9659615718
 30
0.0
  0
VERTEX
  5
4F4
  8
0
  6
CONTINUOUS
 62
     7
 10
4.4026273106
 20
5.0181122627
 30
0.0
  0
VERTEX
  5
4F5
  8
0
  6
CONTINUOUS
 62
     7
 10
4.3351759431
 20
5.0675962177
 30
0.0
  0
VERTEX
  5
4F6
  8
0
  6
CONTINUOUS
 62
     7
 10
4.2668632123
 20
5.1143359244
 30
0.0
  0
VERTEX
  5
4F7
  8
0
  6
CONTINUOUS
 62
     7
 10
4.1977964035
 20
5.1582580504
 30
0.0
  0
VERTEX
  5
4F8
  8
0
  6
CONTINUOUS
 62
     7
 10
4.1280837555
 20
5.1992935897
 30
0.0
  0
VERTEX
  5
4F9
  8
0
  6
CONTINUOUS
 62
     7
 10
4.0578347537
 20
5.2373782297
 30
0.0
  0
VERTEX
  5
4FA
  8
0
  6
CONTINUOUS
 62
     7
 10
3.9871595434
 20
5.2724522045
 30
0.0
  0
VERTEX
  5
4FB
  8
0
  6
CONTINUOUS
 62
     7
 10
3.9161690035
 20
5.3044605148
 30
0.0
  0
VERTEX
  5
4FC
  8
0
  6
CONTINUOUS
 62
     7
 10
3.8449745993
 20
5.3333528543
 30
0.0
  0
VERTEX
  5
4FD
  8
0
  6
CONTINUOUS
 62
     7
 10
3.7736879428
 20
5.3590839771
 30
0.0
  0
VERTEX
  5
4FE
  8
0
  6
CONTINUOUS
 62
     7
 10
3.7024209394
 20
5.3816134768
 30
0.0
  0
VERTEX
  5
4FF
  8
0
  6
CONTINUOUS
 62
     7
 10
3.6312853479
 20
5.4009060073
 30
0.0
  0
VERTEX
  5
500
  8
0
  6
CONTINUOUS
 62
     7
 10
3.5603927802
 20
5.4169312822
 30
0.0
  0
VERTEX
  5
501
  8
0
  6
CONTINUOUS
 62
     7
 10
3.4898547017
 20
5.4296641484
 30
0.0
  0
VERTEX
  5
502
  8
0
  6
CONTINUOUS
 62
     7
 10
3.4197814045
 20
5.4390847329
 30
0.0
  0
VERTEX
  5
503
  8
0
  6
CONTINUOUS
 62
     7
 10
3.350283034
 20
5.4451781492
 30
0.0
  0
SEQEND
  5
4F1
  8
0
  6
CONTINUOUS
 62
     7
  0
LINE
  5
E1
  8
0
  6
CONTINUOUS
 62
     7
 10
3.3502830483
 20
5.4451781365
 30
0.0
 11
2.8119237886
 21
5.756
 31
0.0
  0
POLYLINE
  5
E2
  8
0
  6
CONTINUOUS
 62
     7
 66
     1
 10
0.0
 20
0.0
 30
0.0
  0
VERTEX
  5
505
  8
0
  6
CONTINUOUS
 62
     7
 10
4.1235786475
 20
5.5424213525
 30
0.0
  0
VERTEX
  5
506
  8
0
  6
CONTINUOUS
 62
     7
 10
4.0448546103
 20
5.5824861163
 30
0.0
  0
VERTEX
  5
507
  8
0
  6
CONTINUOUS
 62
     7
 10
3.9657581907
 20
5.6192922778
 30
0.0
  0
VERTEX
  5
508
  8
0
  6
CONTINUOUS
 62
     7
 10
3.8864034941
 20
5.6527867442
 30
0.0
  0
VERTEX
  5
509
  8
0
  6
CONTINUOUS
 62
     7
 10
3.8069044791
 20
5.6829211161
 30
0.0
  0
VERTEX
  5
50A
  8
0
  6
CONTINUOUS
 62
     7
 10
3.7273756912
 20
5.7096524206
 30
0.0
  0
VERTEX
  5
50B
  8
0
  6
CONTINUOUS
 62
     7
 10
3.6479315289
 20
5.7329419382
 30
0.0
  0
VERTEX
  5
50C
  8
0
  6
CONTINUOUS
 62
     7
 10
3.568686391
 20
5.7527560827
 30
0.0
  0
VERTEX
  5
50D
  8
0
  6
CONTINUOUS
 62
     7
 10
3.4897543828
 20
5.7690665476
 30
0.0
  0
VERTEX
  5
50E
  8
0
  6
CONTINUOUS
 62
     7
 10
3.4112490231
 20
5.7818495733
 30
0.0
  0
VERTEX
  5
50F
  8
0
  6
CONTINUOUS
 62
     7
 10
3.3332833904
 20
5.7910871199
 30
0.0
  0
VERTEX
  5
510
  8
0
  6
CONTINUOUS
 62
     7
 10
3.2559696835
 20
5.7967655476
 30
0.0
  0
VERTEX
  5
511
  8
0
  6
CONTINUOUS
 62
     7
 10
3.1794192212
 20
5.7988769366
 30
0.0
  0
VERTEX
  5
512
  8
0
  6
CONTINUOUS
 62
     7
 10
3.1037420021
 20
5.7974180601
 30
0.0
  0
VERTEX
  5
513
  8
0
  6
CONTINUOUS
 62
     7
 10
3.0290472916
 20
5.7923912648
 30
0.0
  0
VERTEX
  5
514
  8
0
  6
CONTINUOUS
 62
     7
 10
2.9554423019
 20
5.783803444
 30
0.0
  0
VERTEX
  5
515
  8
0
  6
CONTINUOUS
 62
     7
 10
2.8830329251
 20
5.7716672109
 30
0.0
  0
VERTEX
  5
516
  8
0
  6
CONTINUOUS
 62
     7
 10
2.8119238799
 20
5.7560000185
 30
0.0
  0
SEQEND
  5
504
  8
0
  6
CONTINUOUS
 62
     7
  0
POLYLINE
  5
E3
  8
0
  6
CONTINUOUS
 62
     7
 66
     1
 10
0.0
 20
0.0
 30
0.0
  0
VERTEX
  5
518
  8
0
  6
CONTINUOUS
 62
     7
 10
3.9099999815
 20
1.6579238799
 30
0.0
  0
VERTEX
  5
519
  8
0
  6
CONTINUOUS
 62
     7
 10
3.9794160729
 20
1.6799101325
 30
0.0
  0
VERTEX
  5
51A
  8
0
  6
CONTINUOUS
 62
     7
 10
4.0481924117
 20
1.7056043691
 30
0.0
  0
VERTEX
  5
51B
  8
0
  6
CONTINUOUS
 62
     7
 10
4.1162299991
 20
1.7349699232
 30
0.0
  0
VERTEX
  5
51C
  8
0
  6
CONTINUOUS
 62
     7
 10
4.1834310828
 20
1.7679636753
 30
0.0
  0
VERTEX
  5
51D
  8
0
  6
CONTINUOUS
 62
     7
 10
4.2496987906
 20
1.8045389862
 30
0.0
  0
VERTEX
  5
51E
  8
0
  6
CONTINUOUS
 62
     7
 10
4.3149377903
 20
1.8446427629
 30
0.0
  0
VERTEX
  5
51F
  8
0
  6
CONTINUOUS
 62
     7
 10
4.3790542162
 20
1.8882172195
 30
0.0
  0
VERTEX
  5
520
  8
0
  6
CONTINUOUS
 62
     7
 10
4.4419556696
 20
1.9352000234
 30
0.0
  0
VERTEX
  5
521
  8
0
  6
CONTINUOUS
 62
     7
 10
4.5035517314
 20
1.9855231221
 30
0.0
  0
VERTEX
  5
522
  8
0
  6
CONTINUOUS
 62
     7
 10
4.5637536692
 20
2.0391143563
 30
0.0
  0
VERTEX
  5
523
  8
0
  6
CONTINUOUS
 62
     7
 10
4.6224748776
 20
2.0958965804
 30
0.0
  0
VERTEX
  5
524
  8
0
  6
CONTINUOUS
 62
     7
 10
4.6796307306
 20
2.1557879552
 30
0.0
  0
VERTEX
  5
525
  8
0
  6
CONTINUOUS
 62
     7
 10
4.7351390961
 20
2.2187022417
 30
0.0
  0
VERTEX
  5
526
  8
0
  6
CONTINUOUS
 62
     7
 10
4.7889200414
 20
2.2845489477
 30
0.0
  0
VERTEX
  5
527
  8
0
  6
CONTINUOUS
 62
     7
 10
4.840896091
 20
2.3532333276
 30
0.0
  0
VERTEX
  5
528
  8
0
  6
CONTINUOUS
 62
     7
 10
4.8909924823
 20
2.4246565292
 30
0.0
  0
VERTEX
  5
529
  8
0
  6
CONTINUOUS
 62
     7
 10
4.9391370928
 20
2.4987157403
 30
0.0
  0
SEQEND
  5
517
  8
0
  6
CONTINUOUS
 62
     7
  0
LINE
  5
E4
  8
0
  6
CONTINUOUS
 62
     7
 10
3.91
 20
1.6579237886
 30
0.0
 11
4.2208218635
 21
2.1962830483
 31
0.0
  0
POLYLINE
  5
E5
  8
0
  6
CONTINUOUS
 62
     7
 66
     1
 10
0.0
 20
0.0
 30
0.0
  0
VERTEX
  5
52B
  8
0
  6
CONTINUOUS
 62
     7
 10
4.2208218508
 20
2.196283034
 30
0.0
  0
VERTEX
  5
52C
  8
0
  6
CONTINUOUS
 62
     7
 10
4.2779625241
 20
2.236309225
 30
0.0
  0
VERTEX
  5
52D
  8
0
  6
CONTINUOUS
 62
     7
 10
4.3339374308
 20
2.2795042593
 30
0.0
  0
VERTEX
  5
52E
  8
0
  6
CONTINUOUS
 62
     7
 10
4.3886588653
 20
2.3258003778
 30
0.0
  0
VERTEX
  5
52F
  8
0
  6
CONTINUOUS
 62
     7
 10
4.4420408819
 20
2.3751249814
 30
0.0
  0
VERTEX
  5
530
  8
0
  6
CONTINUOUS
 62
     7
 10
4.4939998084
 20
2.4274006308
 30
0.0
  0
VERTEX
  5
531
  8
0
  6
CONTINUOUS
 62
     7
 10
4.5444541722
 20
2.4825451938
 30
0.0
  0
VERTEX
  5
532
  8
0
  6
CONTINUOUS
 62
     7
 10
4.5933246276
 20
2.5404722846
 30
0.0
  0
VERTEX
  5
533
  8
0
  6
CONTINUOUS
 62
     7
 10
4.6405346156
 20
2.6010911176
 30
0.0
  0
VERTEX
  5
534
  8
0
  6
CONTINUOUS
 62
     7
 10
4.6860100703
 20
2.6643063607
 30
0.0
  0
VERTEX
  5
535
  8
0
  6
CONTINUOUS
 62
     7
 10
4.7296796391
 20
2.7300188683
 30
0.0
  0
VERTEX
  5
536
  8
0
  6
CONTINUOUS
 62
     7
 10
4.7714747563
 20
2.7981256815
 30
0.0
  0
VERTEX
  5
537
  8
0
  6
CONTINUOUS
 62
     7
 10
4.8113298992
 20
2.8685198816
 30
0.0
  0
VERTEX
  5
538
  8
0
  6
CONTINUOUS
 62
     7
 10
4.8491824786
 20
2.9410908833
 30
0.0
  0
VERTEX
  5
539
  8
0
  6
CONTINUOUS
 62
     7
 10
4.8849731685
 20
3.0157250211
 30
0.0
  0
VERTEX
  5
53A
  8
0
  6
CONTINUOUS
 62
     7
 10
4.9186457962
 20
3.0923051098
 30
0.0
  0
VERTEX
  5
53B
  8
0
  6
CONTINUOUS
 62
     7
 10
4.9501475256
 20
3.1707110307
 30
0.0
  0
VERTEX
  5
53C
  8
0
  6
CONTINUOUS
 62
     7
 10
4.9575454535
 20
3.1902297919
 30
0.0
  0
SEQEND
  5
52A
  8
0
  6
CONTINUOUS
 62
     7
  0
POLYLINE
  5
E6
  8
0
  6
CONTINUOUS
 62
     7
 66
     1
 10
0.0
 20
0.0
 30
0.0
  0
VERTEX
  5
53E
  8
0
  6
CONTINUOUS
 62
     7
 10
4.2607887158
 20
4.3970479514
 30
0.0
  0
VERTEX
  5
53F
  8
0
  6
CONTINUOUS
 62
     7
 10
4.2401858805
 20
4.400400566
 30
0.0
  0
VERTEX
  5
540
  8
0
  6
CONTINUOUS
 62
     7
 10
4.1565335335
 20
4.4123222192
 30
0.0
  0
VERTEX
  5
541
  8
0
  6
CONTINUOUS
 62
     7
 10
4.0733769874
 20
4.421450922
 30
0.0
  0
VERTEX
  5
542
  8
0
  6
CONTINUOUS
 62
     7
 10
3.9908465542
 20
4.4277723473
 30
0.0
  0
VERTEX
  5
543
  8
0
  6
CONTINUOUS
 62
     7
 10
3.9090718855
 20
4.4312765585
 30
0.0
  0
VERTEX
  5
544
  8
0
  6
CONTINUOUS
 62
     7
 10
3.8281811666
 20
4.431958074
 30
0.0
  0
VERTEX
  5
545
  8
0
  6
CONTINUOUS
 62
     7
 10
3.7483014094
 20
4.4298158304
 30
0.0
  0
VERTEX
  5
546
  8
0
  6
CONTINUOUS
 62
     7
 10
3.6695578657
 20
4.4248531827
 30
0.0
  0
VERTEX
  5
547
  8
0
  6
CONTINUOUS
 62
     7
 10
3.5920741742
 20
4.4170779042
 30
0.0
  0
VERTEX
  5
548
  8
0
  6
CONTINUOUS
 62
     7
 10
3.5159717733
 20
4.4065022047
 30
0.0
  0
VERTEX
  5
549
  8
0
  6
CONTINUOUS
 62
     7
 10
3.4413701951
 20
4.3931426849
 30
0.0
  0
VERTEX
  5
54A
  8
0
  6
CONTINUOUS
 62
     7
 10
3.3683863316
 20
4.3770202995
 30
0.0
  0
VERTEX
  5
54B
  8
0
  6
CONTINUOUS
 62
     7
 10
3.2971348747
 20
4.358160339
 30
0.0
  0
VERTEX
  5
54C
  8
0
  6
CONTINUOUS
 62
     7
 10
3.2277275831
 20
4.3365923932
 30
0.0
  0
VERTEX
  5
54D
  8
0
  6
CONTINUOUS
 62
     7
 10
3.1602732824
 20
4.312350314
 30
0.0
  0
VERTEX
  5
54E
  8
0
  6
CONTINUOUS
 62
     7
 10
3.0948777178
 20
4.2854721245
 30
0.0
  0
VERTEX
  5
54F
  8
0
  6
CONTINUOUS
 62
     7
 10
3.0316437016
 20
4.256
 30
0.0
  0
SEQEND
  5
53D
  8
0
  6
CONTINUOUS
 62
     7
  0
POLYLINE
  5
E7
  8
0
  6
CONTINUOUS
 62
     7
 66
     1
 10
0.0
 20
0.0
 30
0.0
  0
VERTEX
  5
551
  8
0
  6
CONTINUOUS
 62
     7
 10
3.6527157403
 20
4.7268629072
 30
0.0
  0
VERTEX
  5
552
  8
0
  6
CONTINUOUS
 62
     7
 10
3.5645062926
 20
4.7221980078
 30
0.0
  0
VERTEX
  5
553
  8
0
  6
CONTINUOUS
 62
     7
 10
3.4776037765
 20
4.7145248631
 30
0.0
  0
VERTEX
  5
554
  8
0
  6
CONTINUOUS
 62
     7
 10
3.3921332972
 20
4.703854473
 30
0.0
  0
VERTEX
  5
555
  8
0
  6
CONTINUOUS
 62
     7
 10
3.3082179066
 20
4.6902022007
 30
0.0
  0
VERTEX
  5
556
  8
0
  6
CONTINUOUS
 62
     7
 10
3.22597831
 20
4.673587736
 30
0.0
  0
VERTEX
  5
557
  8
0
  6
CONTINUOUS
 62
     7
 10
3.1455330126
 20
4.6540349485
 30
0.0
  0
VERTEX
  5
558
  8
0
  6
CONTINUOUS
 62
     7
 10
3.0669975866
 20
4.631571998
 30
0.0
  0
VERTEX
  5
559
  8
0
  6
CONTINUOUS
 62
     7
 10
2.9904852571
 20
4.6062311874
 30
0.0
  0
VERTEX
  5
55A
  8
0
  6
CONTINUOUS
 62
     7
 10
2.9161061697
 20
4.5780490363
 30
0.0
  0
VERTEX
  5
55B
  8
0
  6
CONTINUOUS
 62
     7
 10
2.843967243
 20
4.5470661159
 30
0.0
  0
VERTEX
  5
55C
  8
0
  6
CONTINUOUS
 62
     7
 10
2.774172316
 20
4.5133269757
 30
0.0
  0
VERTEX
  5
55D
  8
0
  6
CONTINUOUS
 62
     7
 10
2.7068220007
 20
4.4768802167
 30
0.0
  0
VERTEX
  5
55E
  8
0
  6
CONTINUOUS
 62
     7
 10
2.642013096
 20
4.4377782717
 30
0.0
  0
VERTEX
  5
55F
  8
0
  6
CONTINUOUS
 62
     7
 10
2.5798388809
 20
4.3960774326
 30
0.0
  0
VERTEX
  5
560
  8
0
  6
CONTINUOUS
 62
     7
 10
2.520388821
 20
4.3518377312
 30
0.0
  0
VERTEX
  5
561
  8
0
  6
CONTINUOUS
 62
     7
 10
2.463748862
 20
4.3051228429
 30
0.0
  0
VERTEX
  5
562
  8
0
  6
CONTINUOUS
 62
     7
 10
2.4099999629
 20
4.256
 30
0.0
  0
SEQEND
  5
550
  8
0
  6
CONTINUOUS
 62
     7
  0
POLYLINE
  5
E8
  8
0
  6
CONTINUOUS
 62
     7
 66
     1
 10
0.0
 20
0.0
 30
0.0
  0
VERTEX
  5
564
  8
0
  6
CONTINUOUS
 62
     7
 10
4.7132432623
 20
3.3312777891
 30
0.0
  0
VERTEX
  5
565
  8
0
  6
CONTINUOUS
 62
     7
 10
4.7000384282
 20
3.3151115692
 30
0.0
  0
VERTEX
  5
566
  8
0
  6
CONTINUOUS
 62
     7
 10
4.6478877373
 20
3.2486273106
 30
0.0
  0
VERTEX
  5
567
  8
0
  6
CONTINUOUS
 62
     7
 10
4.5984037823
 20
3.1811759431
 30
0.0
  0
VERTEX
  5
568
  8
0
  6
CONTINUOUS
 62
     7
 10
4.5516640756
 20
3.1128632123
 30
0.0
  0
VERTEX
  5
569
  8
0
  6
CONTINUOUS
 62
     7
 10
4.5077419496
 20
3.0437964035
 30
0.0
  0
VERTEX
  5
56A
  8
0
  6
CONTINUOUS
 62
     7
 10
4.4667064103
 20
2.9740837555
 30
0.0
  0
VERTEX
  5
56B
  8
0
  6
CONTINUOUS
 62
     7
 10
4.4286217703
 20
2.9038347537
 30
0.0
  0
VERTEX
  5
56C
  8
0
  6
CONTINUOUS
 62
     7
 10
4.3935477955
 20
2.8331595434
 30
0.0
  0
VERTEX
  5
56D
  8
0
  6
CONTINUOUS
 62
     7
 10
4.3615394852
 20
2.7621690035
 30
0.0
  0
VERTEX
  5
56E
  8
0
  6
CONTINUOUS
 62
     7
 10
4.3326471457
 20
2.6909745993
 30
0.0
  0
VERTEX
  5
56F
  8
0
  6
CONTINUOUS
 62
     7
 10
4.3069160229
 20
2.6196879428
 30
0.0
  0
VERTEX
  5
570
  8
0
  6
CONTINUOUS
 62
     7
 10
4.2843865232
 20
2.5484209394
 30
0.0
  0
VERTEX
  5
571
  8
0
  6
CONTINUOUS
 62
     7
 10
4.2650939927
 20
2.4772853479
 30
0.0
  0
VERTEX
  5
572
  8
0
  6
CONTINUOUS
 62
     7
 10
4.2490687178
 20
2.4063927802
 30
0.0
  0
VERTEX
  5
573
  8
0
  6
CONTINUOUS
 62
     7
 10
4.2363358516
 20
2.3358547017
 30
0.0
  0
VERTEX
  5
574
  8
0
  6
CONTINUOUS
 62
     7
 10
4.2269152671
 20
2.2657814045
 30
0.0
  0
VERTEX
  5
575
  8
0
  6
CONTINUOUS
 62
     7
 10
4.2208218508
 20
2.196283034
 30
0.0
  0
SEQEND
  5
563
  8
0
  6
CONTINUOUS
 62
     7
  0
POLYLINE
  5
E9
  8
0
  6
CONTINUOUS
 62
     7
 66
     1
 10
0.0
 20
0.0
 30
0.0
  0
VERTEX
  5
577
  8
0
  6
CONTINUOUS
 62
     7
 10
4.1235786475
 20
2.9695786475
 30
0.0
  0
VERTEX
  5
578
  8
0
  6
CONTINUOUS
 62
     7
 10
4.0835138837
 20
2.8908546103
 30
0.0
  0
VERTEX
  5
579
  8
0
  6
CONTINUOUS
 62
     7
 10
4.0467077222
 20
2.8117581907
 30
0.0
  0
VERTEX
  5
57A
  8
0
  6
CONTINUOUS
 62
     7
 10
4.0132132558
 20
2.7324034941
 30
0.0
  0
VERTEX
  5
57B
  8
0
  6
CONTINUOUS
 62
     7
 10
3.9830788839
 20
2.6529044791
 30
0.0
  0
VERTEX
  5
57C
  8
0
  6
CONTINUOUS
 62
     7
 10
3.9563475794
 20
2.5733756912
 30
0.0
  0
VERTEX
  5
57D
  8
0
  6
CONTINUOUS
 62
     7
 10
3.9330580618
 20
2.4939315289
 30
0.0
  0
VERTEX
  5
57E
  8
0
  6
CONTINUOUS
 62
     7
 10
3.9132439173
 20
2.414686391
 30
0.0
  0
VERTEX
  5
57F
  8
0
  6
CONTINUOUS
 62
     7
 10
3.8969334524
 20
2.3357543828
 30
0.0
  0
VERTEX
  5
580
  8
0
  6
CONTINUOUS
 62
     7
 10
3.8841504267
 20
2.2572490231
 30
0.0
  0
VERTEX
  5
581
  8
0
  6
CONTINUOUS
 62
     7
 10
3.8749128801
 20
2.1792833904
 30
0.0
  0
VERTEX
  5
582
  8
0
  6
CONTINUOUS
 62
     7
 10
3.8692344524
 20
2.1019696835
 30
0.0
  0
VERTEX
  5
583
  8
0
  6
CONTINUOUS
 62
     7
 10
3.8671230634
 20
2.0254192212
 30
0.0
  0
VERTEX
  5
584
  8
0
  6
CONTINUOUS
 62
     7
 10
3.8685819399
 20
1.9497420021
 30
0.0
  0
VERTEX
  5
585
  8
0
  6
CONTINUOUS
 62
     7
 10
3.8736087352
 20
1.8750472916
 30
0.0
  0
VERTEX
  5
586
  8
0
  6
CONTINUOUS
 62
     7
 10
3.882196556
 20
1.8014423019
 30
0.0
  0
VERTEX
  5
587
  8
0
  6
CONTINUOUS
 62
     7
 10
3.8943327891
 20
1.7290329251
 30
0.0
  0
VERTEX
  5
588
  8
0
  6
CONTINUOUS
 62
     7
 10
3.9099999815
 20
1.6579238799
 30
0.0
  0
SEQEND
  5
576
  8
0
  6
CONTINUOUS
 62
     7
  0
POLYLINE
  5
EA
  8
0
  6
CONTINUOUS
 62
     7
 66
     1
 10
0.0
 20
0.0
 30
0.0
  0
VERTEX
  5
58A
  8
0
  6
CONTINUOUS
 62
     7
 10
3.9099999815
 20
6.8540761201
 30
0.0
  0
VERTEX
  5
58B
  8
0
  6
CONTINUOUS
 62
     7
 10
3.8943327891
 20
6.7829670749
 30
0.0
  0
VERTEX
  5
58C
  8
0
  6
CONTINUOUS
 62
     7
 10
3.882196556
 20
6.7105576981
 30
0.0
  0
VERTEX
  5
58D
  8
0
  6
CONTINUOUS
 62
     7
 10
3.8736087352
 20
6.6369527084
 30
0.0
  0
VERTEX
  5
58E
  8
0
  6
CONTINUOUS
 62
     7
 10
3.8685819399
 20
6.5622579979
 30
0.0
  0
VERTEX
  5
58F
  8
0
  6
CONTINUOUS
 62
     7
 10
3.8671230634
 20
6.4865807788
 30
0.0
  0
VERTEX
  5
590
  8
0
  6
CONTINUOUS
 62
     7
 10
3.8692344524
 20
6.4100303165
 30
0.0
  0
VERTEX
  5
591
  8
0
  6
CONTINUOUS
 62
     7
 10
3.8749128801
 20
6.3327166096
 30
0.0
  0
VERTEX
  5
592
  8
0
  6
CONTINUOUS
 62
     7
 10
3.8841504267
 20
6.2547509769
 30
0.0
  0
VERTEX
  5
593
  8
0
  6
CONTINUOUS
 62
     7
 10
3.8969334524
 20
6.1762456172
 30
0.0
  0
VERTEX
  5
594
  8
0
  6
CONTINUOUS
 62
     7
 10
3.9132439173
 20
6.097313609
 30
0.0
  0
VERTEX
  5
595
  8
0
  6
CONTINUOUS
 62
     7
 10
3.9330580618
 20
6.0180684711
 30
0.0
  0
VERTEX
  5
596
  8
0
  6
CONTINUOUS
 62
     7
 10
3.9563475794
 20
5.9386243088
 30
0.0
  0
VERTEX
  5
597
  8
0
  6
CONTINUOUS
 62
     7
 10
3.9830788839
 20
5.8590955209
 30
0.0
  0
VERTEX
  5
598
  8
0
  6
CONTINUOUS
 62
     7
 10
4.0132132558
 20
5.7795965059
 30
0.0
  0
VERTEX
  5
599
  8
0
  6
CONTINUOUS
 62
     7
 10
4.0467077222
 20
5.7002418093
 30
0.0
  0
VERTEX
  5
59A
  8
0
  6
CONTINUOUS
 62
     7
 10
4.0835138837
 20
5.6211453897
 30
0.0
  0
VERTEX
  5
59B
  8
0
  6
CONTINUOUS
 62
     7
 10
4.1235786475
 20
5.5424213525
 30
0.0
  0
SEQEND
  5
589
  8
0
  6
CONTINUOUS
 62
     7
  0
POLYLINE
  5
EB
  8
0
  6
CONTINUOUS
 62
     7
 66
     1
 10
0.0
 20
0.0
 30
0.0
  0
VERTEX
  5
59D
  8
0
  6
CONTINUOUS
 62
     7
 10
4.2208218508
 20
6.315716966
 30
0.0
  0
VERTEX
  5
59E
  8
0
  6
CONTINUOUS
 62
     7
 10
4.2269152671
 20
6.2462185955
 30
0.0
  0
VERTEX
  5
59F
  8
0
  6
CONTINUOUS
 62
     7
 10
4.2363358516
 20
6.1761452983
 30
0.0
  0
VERTEX
  5
5A0
  8
0
  6
CONTINUOUS
 62
     7
 10
4.2490687178
 20
6.1056072198
 30
0.0
  0
VERTEX
  5
5A1
  8
0
  6
CONTINUOUS
 62
     7
 10
4.2650939927
 20
6.0347146521
 30
0.0
  0
VERTEX
  5
5A2
  8
0
  6
CONTINUOUS
 62
     7
 10
4.2843865232
 20
5.9635790606
 30
0.0
  0
VERTEX
  5
5A3
  8
0
  6
CONTINUOUS
 62
     7
 10
4.3069160229
 20
5.8923120572
 30
0.0
  0
VERTEX
  5
5A4
  8
0
  6
CONTINUOUS
 62
     7
 10
4.3326471457
 20
5.8210254007
 30
0.0
  0
VERTEX
  5
5A5
  8
0
  6
CONTINUOUS
 62
     7
 10
4.3615394852
 20
5.7498309965
 30
0.0
  0
VERTEX
  5
5A6
  8
0
  6
CONTINUOUS
 62
     7
 10
4.3935477955
 20
5.6788404566
 30
0.0
  0
VERTEX
  5
5A7
  8
0
  6
CONTINUOUS
 62
     7
 10
4.4286217703
 20
5.6081652463
 30
0.0
  0
VERTEX
  5
5A8
  8
0
  6
CONTINUOUS
 62
     7
 10
4.4667064103
 20
5.5379162445
 30
0.0
  0
VERTEX
  5
5A9
  8
0
  6
CONTINUOUS
 62
     7
 10
4.5077419496
 20
5.4682035965
 30
0.0
  0
VERTEX
  5
5AA
  8
0
  6
CONTINUOUS
 62
     7
 10
4.5516640756
 20
5.3991367877
 30
0.0
  0
VERTEX
  5
5AB
  8
0
  6
CONTINUOUS
 62
     7
 10
4.5984037823
 20
5.3308240569
 30
0.0
  0
VERTEX
  5
5AC
  8
0
  6
CONTINUOUS
 62
     7
 10
4.6478877373
 20
5.2633726894
 30
0.0
  0
VERTEX
  5
5AD
  8
0
  6
CONTINUOUS
 62
     7
 10
4.7000384282
 20
5.1968884308
 30
0.0
  0
VERTEX
  5
5AE
  8
0
  6
CONTINUOUS
 62
     7
 10
4.7132432623
 20
5.1807222109
 30
0.0
  0
SEQEND
  5
59C
  8
0
  6
CONTINUOUS
 62
     7
  0
POLYLINE
  5
EC
  8
0
  6
CONTINUOUS
 62
     7
 66
     1
 10
0.0
 20
0.0
 30
0.0
  0
VERTEX
  5
5B0
  8
0
  6
CONTINUOUS
 62
     7
 10
2.8119238799
 20
2.7559999815
 30
0.0
  0
VERTEX
  5
5B1
  8
0
  6
CONTINUOUS
 62
     7
 10
2.8830329251
 20
2.7403327891
 30
0.0
  0
VERTEX
  5
5B2
  8
0
  6
CONTINUOUS
 62
     7
 10
2.9554423019
 20
2.728196556
 30
0.0
  0
VERTEX
  5
5B3
  8
0
  6
CONTINUOUS
 62
     7
 10
3.0290472916
 20
2.7196087352
 30
0.0
  0
VERTEX
  5
5B4
  8
0
  6
CONTINUOUS
 62
     7
 10
3.1037420021
 20
2.7145819399
 30
0.0
  0
VERTEX
  5
5B5
  8
0
  6
CONTINUOUS
 62
     7
 10
3.1794192212
 20
2.7131230634
 30
0.0
  0
VERTEX
  5
5B6
  8
0
  6
CONTINUOUS
 62
     7
 10
3.2559696835
 20
2.7152344524
 30
0.0
  0
VERTEX
  5
5B7
  8
0
  6
CONTINUOUS
 62
     7
 10
3.3332833904
 20
2.7209128801
 30
0.0
  0
VERTEX
  5
5B8
  8
0
  6
CONTINUOUS
 62
     7
 10
3.4112490231
 20
2.7301504267
 30
0.0
  0
VERTEX
  5
5B9
  8
0
  6
CONTINUOUS
 62
     7
 10
3.4897543828
 20
2.7429334524
 30
0.0
  0
VERTEX
  5
5BA
  8
0
  6
CONTINUOUS
 62
     7
 10
3.568686391
 20
2.7592439173
 30
0.0
  0
VERTEX
  5
5BB
  8
0
  6
CONTINUOUS
 62
     7
 10
3.6479315289
 20
2.7790580618
 30
0.0
  0
VERTEX
  5
5BC
  8
0
  6
CONTINUOUS
 62
     7
 10
3.7273756912
 20
2.8023475794
 30
0.0
  0
VERTEX
  5
5BD
  8
0
  6
CONTINUOUS
 62
     7
 10
3.8069044791
 20
2.8290788839
 30
0.0
  0
VERTEX
  5
5BE
  8
0
  6
CONTINUOUS
 62
     7
 10
3.8864034941
 20
2.8592132558
 30
0.0
  0
VERTEX
  5
5BF
  8
0
  6
CONTINUOUS
 62
     7
 10
3.9657581907
 20
2.8927077222
 30
0.0
  0
VERTEX
  5
5C0
  8
0
  6
CONTINUOUS
 62
     7
 10
4.0448546103
 20
2.9295138837
 30
0.0
  0
VERTEX
  5
5C1
  8
0
  6
CONTINUOUS
 62
     7
 10
4.1235786475
 20
2.9695786475
 30
0.0
  0
SEQEND
  5
5AF
  8
0
  6
CONTINUOUS
 62
     7
  0
POLYLINE
  5
ED
  8
0
  6
CONTINUOUS
 62
     7
 66
     1
 10
0.0
 20
0.0
 30
0.0
  0
VERTEX
  5
5C3
  8
0
  6
CONTINUOUS
 62
     7
 10
3.350283034
 20
3.0668218508
 30
0.0
  0
VERTEX
  5
5C4
  8
0
  6
CONTINUOUS
 62
     7
 10
3.4197814045
 20
3.0729152671
 30
0.0
  0
VERTEX
  5
5C5
  8
0
  6
CONTINUOUS
 62
     7
 10
3.4898547017
 20
3.0823358516
 30
0.0
  0
VERTEX
  5
5C6
  8
0
  6
CONTINUOUS
 62
     7
 10
3.5603927802
 20
3.0950687178
 30
0.0
  0
VERTEX
  5
5C7
  8
0
  6
CONTINUOUS
 62
     7
 10
3.6312853479
 20
3.1110939927
 30
0.0
  0
VERTEX
  5
5C8
  8
0
  6
CONTINUOUS
 62
     7
 10
3.7024209394
 20
3.1303865232
 30
0.0
  0
VERTEX
  5
5C9
  8
0
  6
CONTINUOUS
 62
     7
 10
3.7736879428
 20
3.1529160229
 30
0.0
  0
VERTEX
  5
5CA
  8
0
  6
CONTINUOUS
 62
     7
 10
3.8449745993
 20
3.1786471457
 30
0.0
  0
VERTEX
  5
5CB
  8
0
  6
CONTINUOUS
 62
     7
 10
3.9161690035
 20
3.2075394852
 30
0.0
  0
VERTEX
  5
5CC
  8
0
  6
CONTINUOUS
 62
     7
 10
3.9871595434
 20
3.2395477955
 30
0.0
  0
VERTEX
  5
5CD
  8
0
  6
CONTINUOUS
 62
     7
 10
4.0578347537
 20
3.2746217703
 30
0.0
  0
VERTEX
  5
5CE
  8
0
  6
CONTINUOUS
 62
     7
 10
4.1280837555
 20
3.3127064103
 30
0.0
  0
VERTEX
  5
5CF
  8
0
  6
CONTINUOUS
 62
     7
 10
4.1977964035
 20
3.3537419496
 30
0.0
  0
VERTEX
  5
5D0
  8
0
  6
CONTINUOUS
 62
     7
 10
4.2668632123
 20
3.3976640756
 30
0.0
  0
VERTEX
  5
5D1
  8
0
  6
CONTINUOUS
 62
     7
 10
4.3351759431
 20
3.4444037823
 30
0.0
  0
VERTEX
  5
5D2
  8
0
  6
CONTINUOUS
 62
     7
 10
4.4026273106
 20
3.4938877373
 30
0.0
  0
VERTEX
  5
5D3
  8
0
  6
CONTINUOUS
 62
     7
 10
4.4691115692
 20
3.5460384282
 30
0.0
  0
VERTEX
  5
5D4
  8
0
  6
CONTINUOUS
 62
     7
 10
4.4852777891
 20
3.5592432623
 30
0.0
  0
SEQEND
  5
5C2
  8
0
  6
CONTINUOUS
 62
     7
  0
POLYLINE
  5
EE
  8
0
  6
CONTINUOUS
 62
     7
 66
     1
 10
0.0
 20
0.0
 30
0.0
  0
VERTEX
  5
5D6
  8
0
  6
CONTINUOUS
 62
     7
 10
2.8119238799
 20
5.7560000185
 30
0.0
  0
VERTEX
  5
5D7
  8
0
  6
CONTINUOUS
 62
     7
 10
2.8339101325
 20
5.6865839271
 30
0.0
  0
VERTEX
  5
5D8
  8
0
  6
CONTINUOUS
 62
     7
 10
2.8596043691
 20
5.6178075883
 30
0.0
  0
VERTEX
  5
5D9
  8
0
  6
CONTINUOUS
 62
     7
 10
2.8889699232
 20
5.5497700009
 30
0.0
  0
VERTEX
  5
5DA
  8
0
  6
CONTINUOUS
 62
     7
 10
2.9219636753
 20
5.4825689172
 30
0.0
  0
VERTEX
  5
5DB
  8
0
  6
CONTINUOUS
 62
     7
 10
2.9585389862
 20
5.4163012094
 30
0.0
  0
VERTEX
  5
5DC
  8
0
  6
CONTINUOUS
 62
     7
 10
2.9986427629
 20
5.3510622097
 30
0.0
  0
VERTEX
  5
5DD
  8
0
  6
CONTINUOUS
 62
     7
 10
3.0422172195
 20
5.2869457838
 30
0.0
  0
VERTEX
  5
5DE
  8
0
  6
CONTINUOUS
 62
     7
 10
3.0892000234
 20
5.2240443304
 30
0.0
  0
VERTEX
  5
5DF
  8
0
  6
CONTINUOUS
 62
     7
 10
3.1395231221
 20
5.1624482686
 30
0.0
  0
VERTEX
  5
5E0
  8
0
  6
CONTINUOUS
 62
     7
 10
3.1931143563
 20
5.1022463308
 30
0.0
  0
VERTEX
  5
5E1
  8
0
  6
CONTINUOUS
 62
     7
 10
3.2498965804
 20
5.0435251224
 30
0.0
  0
VERTEX
  5
5E2
  8
0
  6
CONTINUOUS
 62
     7
 10
3.3097879552
 20
4.9863692694
 30
0.0
  0
VERTEX
  5
5E3
  8
0
  6
CONTINUOUS
 62
     7
 10
3.3727022417
 20
4.9308609039
 30
0.0
  0
VERTEX
  5
5E4
  8
0
  6
CONTINUOUS
 62
     7
 10
3.4385489477
 20
4.8770799586
 30
0.0
  0
VERTEX
  5
5E5
  8
0
  6
CONTINUOUS
 62
     7
 10
3.5072333276
 20
4.825103909
 30
0.0
  0
VERTEX
  5
5E6
  8
0
  6
CONTINUOUS
 62
     7
 10
3.5786565292
 20
4.7750075177
 30
0.0
  0
VERTEX
  5
5E7
  8
0
  6
CONTINUOUS
 62
     7
 10
3.6527157403
 20
4.7268629072
 30
0.0
  0
SEQEND
  5
5D5
  8
0
  6
CONTINUOUS
 62
     7
  0
POLYLINE
  5
EF
  8
0
  6
CONTINUOUS
 62
     7
 66
     1
 10
0.0
 20
0.0
 30
0.0
  0
VERTEX
  5
5E9
  8
0
  6
CONTINUOUS
 62
     7
 10
3.350283034
 20
5.4451781492
 30
0.0
  0
VERTEX
  5
5EA
  8
0
  6
CONTINUOUS
 62
     7
 10
3.390309225
 20
5.3880374759
 30
0.0
  0
VERTEX
  5
5EB
  8
0
  6
CONTINUOUS
 62
     7
 10
3.4335042593
 20
5.3320625692
 30
0.0
  0
VERTEX
  5
5EC
  8
0
  6
CONTINUOUS
 62
     7
 10
3.4798003778
 20
5.2773411347
 30
0.0
  0
VERTEX
  5
5ED
  8
0
  6
CONTINUOUS
 62
     7
 10
3.5291249814
 20
5.2239591181
 30
0.0
  0
VERTEX
  5
5EE
  8
0
  6
CONTINUOUS
 62
     7
 10
3.5814006308
 20
5.1720001916
 30
0.0
  0
VERTEX
  5
5EF
  8
0
  6
CONTINUOUS
 62
     7
 10
3.6365451938
 20
5.1215458278
 30
0.0
  0
VERTEX
  5
5F0
  8
0
  6
CONTINUOUS
 62
     7
 10
3.6944722846
 20
5.0726753724
 30
0.0
  0
VERTEX
  5
5F1
  8
0
  6
CONTINUOUS
 62
     7
 10
3.7550911176
 20
5.0254653844
 30
0.0
  0
VERTEX
  5
5F2
  8
0
  6
CONTINUOUS
 62
     7
 10
3.8183063607
 20
4.9799899297
 30
0.0
  0
VERTEX
  5
5F3
  8
0
  6
CONTINUOUS
 62
     7
 10
3.8840188683
 20
4.9363203609
 30
0.0
  0
VERTEX
  5
5F4
  8
0
  6
CONTINUOUS
 62
     7
 10
3.9521256815
 20
4.8945252437
 30
0.0
  0
VERTEX
  5
5F5
  8
0
  6
CONTINUOUS
 62
     7
 10
4.0225198816
 20
4.8546701008
 30
0.0
  0
VERTEX
  5
5F6
  8
0
  6
CONTINUOUS
 62
     7
 10
4.0950908833
 20
4.8168175214
 30
0.0
  0
VERTEX
  5
5F7
  8
0
  6
CONTINUOUS
 62
     7
 10
4.1697250211
 20
4.7810268315
 30
0.0
  0
VERTEX
  5
5F8
  8
0
  6
CONTINUOUS
 62
     7
 10
4.2463051098
 20
4.7473542038
 30
0.0
  0
VERTEX
  5
5F9
  8
0
  6
CONTINUOUS
 62
     7
 10
4.3247110307
 20
4.7158524744
 30
0.0
  0
VERTEX
  5
5FA
  8
0
  6
CONTINUOUS
 62
     7
 10
4.3442297919
 20
4.7084545465
 30
0.0
  0
SEQEND
  5
5E8
  8
0
  6
CONTINUOUS
 62
     7
  0
LINE
  5
F0
  8
0
  6
CONTINUOUS
 62
     7
 10
3.91
 20
6.8540762114
 30
0.0
 11
3.9719596893
 21
6.848820954
 31
0.0
  0
POLYLINE
  5
F1
  8
0
  6
CONTINUOUS
 62
     7
 66
     1
 10
0.0
 20
0.0
 30
0.0
  0
VERTEX
  5
5FC
  8
0
  6
CONTINUOUS
 62
     7
 10
4.9091749056
 20
6.1251047146
 30
0.0
  0
VERTEX
  5
5FD
  8
0
  6
CONTINUOUS
 62
     7
 10
4.918981109
 20
6.0885074041
 30
0.0
  0
VERTEX
  5
5FE
  8
0
  6
CONTINUOUS
 62
     7
 10
4.9289697636
 20
6.0512292747
 30
0.0
  0
VERTEX
  5
5FF
  8
0
  6
CONTINUOUS
 62
     7
 10
4.9391370928
 20
6.0132842597
 30
0.0
  0
SEQEND
  5
5FB
  8
0
  6
CONTINUOUS
 62
     7
  0
POLYLINE
  5
F2
  8
0
  6
CONTINUOUS
 62
     7
 66
     1
 10
0.0
 20
0.0
 30
0.0
  0
VERTEX
  5
601
  8
0
  6
CONTINUOUS
 62
     7
 10
4.9091749056
 20
6.1251047146
 30
0.0
  0
VERTEX
  5
602
  8
0
  6
CONTINUOUS
 62
     7
 10
4.8606155265
 20
6.1917604246
 30
0.0
  0
VERTEX
  5
603
  8
0
  6
CONTINUOUS
 62
     7
 10
4.8103869534
 20
6.2558946704
 30
0.0
  0
VERTEX
  5
604
  8
0
  6
CONTINUOUS
 62
     7
 10
4.7585545989
 20
6.3174237063
 30
0.0
  0
VERTEX
  5
605
  8
0
  6
CONTINUOUS
 62
     7
 10
4.7051860754
 20
6.3762675998
 30
0.0
  0
VERTEX
  5
606
  8
0
  6
CONTINUOUS
 62
     7
 10
4.6503507555
 20
6.4323494986
 30
0.0
  0
VERTEX
  5
607
  8
0
  6
CONTINUOUS
 62
     7
 10
4.5941200651
 20
6.4855965102
 30
0.0
  0
VERTEX
  5
608
  8
0
  6
CONTINUOUS
 62
     7
 10
4.53656741
 20
6.5359392619
 30
0.0
  0
VERTEX
  5
609
  8
0
  6
CONTINUOUS
 62
     7
 10
4.4777676626
 20
6.583312048
 30
0.0
  0
VERTEX
  5
60A
  8
0
  6
CONTINUOUS
 62
     7
 10
4.417797382
 20
6.6276532691
 30
0.0
  0
VERTEX
  5
60B
  8
0
  6
CONTINUOUS
 62
     7
 10
4.3567347407
 20
6.6689051392
 30
0.0
  0
VERTEX
  5
60C
  8
0
  6
CONTINUOUS
 62
     7
 10
4.2946592312
 20
6.707013979
 30
0.0
  0
VERTEX
  5
60D
  8
0
  6
CONTINUOUS
 62
     7
 10
4.2316518124
 20
6.7419299223
 30
0.0
  0
VERTEX
  5
60E
  8
0
  6
CONTINUOUS
 62
     7
 10
4.1677944701
 20
6.7736077964
 30
0.0
  0
VERTEX
  5
60F
  8
0
  6
CONTINUOUS
 62
     7
 10
4.1031703633
 20
6.8020062417
 30
0.0
  0
VERTEX
  5
610
  8
0
  6
CONTINUOUS
 62
     7
 10
4.0378638244
 20
6.8270882986
 30
0.0
  0
VERTEX
  5
611
  8
0
  6
CONTINUOUS
 62
     7
 10
3.9719596257
 20
6.8488208208
 30
0.0
  0
SEQEND
  5
600
  8
0
  6
CONTINUOUS
 62
     7
  0
LINE
  5
F3
  8
0
  6
CONTINUOUS
 62
     7
 10
5.3589689637
 20
7.220468969
 30
0.0
 11
5.41
 21
7.256
 31
0.0
  0
POLYLINE
  5
F4
  8
0
  6
CONTINUOUS
 62
     7
 66
     1
 10
0.0
 20
0.0
 30
0.0
  0
VERTEX
  5
613
  8
0
  6
CONTINUOUS
 62
     7
 10
5.3589689633
 20
7.2204689809
 30
0.0
  0
VERTEX
  5
614
  8
0
  6
CONTINUOUS
 62
     7
 10
5.3127607475
 20
7.168695659
 30
0.0
  0
VERTEX
  5
615
  8
0
  6
CONTINUOUS
 62
     7
 10
5.2687445176
 20
7.1143207938
 30
0.0
  0
VERTEX
  5
616
  8
0
  6
CONTINUOUS
 62
     7
 10
5.2269776243
 20
7.0574150778
 30
0.0
  0
VERTEX
  5
617
  8
0
  6
CONTINUOUS
 62
     7
 10
5.1875144618
 20
6.9980527236
 30
0.0
  0
VERTEX
  5
618
  8
0
  6
CONTINUOUS
 62
     7
 10
5.1504064272
 20
6.9363105835
 30
0.0
  0
VERTEX
  5
619
  8
0
  6
CONTINUOUS
 62
     7
 10
5.1157018831
 20
6.87226991
 30
0.0
  0
VERTEX
  5
61A
  8
0
  6
CONTINUOUS
 62
     7
 10
5.083446039
 20
6.806013422
 30
0.0
  0
VERTEX
  5
61B
  8
0
  6
CONTINUOUS
 62
     7
 10
5.0536808596
 20
6.737627652
 30
0.0
  0
VERTEX
  5
61C
  8
0
  6
CONTINUOUS
 62
     7
 10
5.0264451742
 20
6.6672016256
 30
0.0
  0
VERTEX
  5
61D
  8
0
  6
CONTINUOUS
 62
     7
 10
5.0017744392
 20
6.594827155
 30
0.0
  0
VERTEX
  5
61E
  8
0
  6
CONTINUOUS
 62
     7
 10
4.9797008109
 20
6.5205986925
 30
0.0
  0
VERTEX
  5
61F
  8
0
  6
CONTINUOUS
 62
     7
 10
4.9602529988
 20
6.444612597
 30
0.0
  0
VERTEX
  5
620
  8
0
  6
CONTINUOUS
 62
     7
 10
4.9434563762
 20
6.3669680139
 30
0.0
  0
VERTEX
  5
621
  8
0
  6
CONTINUOUS
 62
     7
 10
4.929332796
 20
6.2877661422
 30
0.0
  0
VERTEX
  5
622
  8
0
  6
CONTINUOUS
 62
     7
 10
4.9179006648
 20
6.2071099406
 30
0.0
  0
VERTEX
  5
623
  8
0
  6
CONTINUOUS
 62
     7
 10
4.9091749056
 20
6.1251047146
 30
0.0
  0
SEQEND
  5
612
  8
0
  6
CONTINUOUS
 62
     7
  0
LINE
  5
F5
  8
0
  6
CONTINUOUS
 62
     7
 10
7.9517899177
 20
2.7295713417
 30
0.0
 11
8.0080762114
 21
2.756
 31
0.0
  0
LINE
  5
F6
  8
0
  6
CONTINUOUS
 62
     7
 10
6.6964213722
 20
2.9695786278
 30
0.0
 11
6.7782796461
 21
2.8877203539
 31
0.0
  0
POLYLINE
  5
F7
  8
0
  6
CONTINUOUS
 62
     7
 66
     1
 10
0.0
 20
0.0
 30
0.0
  0
VERTEX
  5
625
  8
0
  6
CONTINUOUS
 62
     7
 10
6.7782796202
 20
2.8877203798
 30
0.0
  0
VERTEX
  5
626
  8
0
  6
CONTINUOUS
 62
     7
 10
6.8536611627
 20
2.8542744595
 30
0.0
  0
VERTEX
  5
627
  8
0
  6
CONTINUOUS
 62
     7
 10
6.9292275031
 20
2.8238469044
 30
0.0
  0
VERTEX
  5
628
  8
0
  6
CONTINUOUS
 62
     7
 10
7.0048800825
 20
2.7964773139
 30
0.0
  0
VERTEX
  5
629
  8
0
  6
CONTINUOUS
 62
     7
 10
7.0805206353
 20
2.7722013276
 30
0.0
  0
VERTEX
  5
62A
  8
0
  6
CONTINUOUS
 62
     7
 10
7.1560503095
 20
2.7510506253
 30
0.0
  0
VERTEX
  5
62B
  8
0
  6
CONTINUOUS
 62
     7
 10
7.231370986
 20
2.7330526332
 30
0.0
  0
VERTEX
  5
62C
  8
0
  6
CONTINUOUS
 62
     7
 10
7.3063843995
 20
2.7182309644
 30
0.0
  0
VERTEX
  5
62D
  8
0
  6
CONTINUOUS
 62
     7
 10
7.3809928709
 20
2.7066048321
 30
0.0
  0
VERTEX
  5
62E
  8
0
  6
CONTINUOUS
 62
     7
 10
7.4550993082
 20
2.6981893426
 30
0.0
  0
VERTEX
  5
62F
  8
0
  6
CONTINUOUS
 62
     7
 10
7.528607059
 20
2.692995496
 30
0.0
  0
VERTEX
  5
630
  8
0
  6
CONTINUOUS
 62
     7
 10
7.6014203512
 20
2.6910300387
 30
0.0
  0
VERTEX
  5
631
  8
0
  6
CONTINUOUS
 62
     7
 10
7.6734444392
 20
2.6922956107
 30
0.0
  0
VERTEX
  5
632
  8
0
  6
CONTINUOUS
 62
     7
 10
7.7445854573
 20
2.6967904521
 30
0.0
  0
VERTEX
  5
633
  8
0
  6
CONTINUOUS
 62
     7
 10
7.8147507134
 20
2.7045086963
 30
0.0
  0
VERTEX
  5
634
  8
0
  6
CONTINUOUS
 62
     7
 10
7.8838488352
 20
2.71544037
 30
0.0
  0
VERTEX
  5
635
  8
0
  6
CONTINUOUS
 62
     7
 10
7.951789917
 20
2.7295713934
 30
0.0
  0
SEQEND
  5
624
  8
0
  6
CONTINUOUS
 62
     7
  0
LINE
  5
F8
  8
0
  6
CONTINUOUS
 62
     7
 10
6.8480403107
 20
6.848820954
 30
0.0
 11
6.91
 21
6.8540762114
 31
0.0
  0
POLYLINE
  5
F9
  8
0
  6
CONTINUOUS
 62
     7
 66
     1
 10
0.0
 20
0.0
 30
0.0
  0
VERTEX
  5
637
  8
0
  6
CONTINUOUS
 62
     7
 10
5.8808629072
 20
6.0132842597
 30
0.0
  0
VERTEX
  5
638
  8
0
  6
CONTINUOUS
 62
     7
 10
5.8910302364
 20
6.0512292747
 30
0.0
  0
VERTEX
  5
639
  8
0
  6
CONTINUOUS
 62
     7
 10
5.901018891
 20
6.0885074041
 30
0.0
  0
VERTEX
  5
63A
  8
0
  6
CONTINUOUS
 62
     7
 10
5.9108250944
 20
6.1251047146
 30
0.0
  0
SEQEND
  5
636
  8
0
  6
CONTINUOUS
 62
     7
  0
POLYLINE
  5
FA
  8
0
  6
CONTINUOUS
 62
     7
 66
     1
 10
0.0
 20
0.0
 30
0.0
  0
VERTEX
  5
63C
  8
0
  6
CONTINUOUS
 62
     7
 10
6.8480403743
 20
6.8488208208
 30
0.0
  0
VERTEX
  5
63D
  8
0
  6
CONTINUOUS
 62
     7
 10
6.7821361756
 20
6.8270882986
 30
0.0
  0
VERTEX
  5
63E
  8
0
  6
CONTINUOUS
 62
     7
 10
6.7168296367
 20
6.8020062417
 30
0.0
  0
VERTEX
  5
63F
  8
0
  6
CONTINUOUS
 62
     7
 10
6.6522055299
 20
6.7736077964
 30
0.0
  0
VERTEX
  5
640
  8
0
  6
CONTINUOUS
 62
     7
 10
6.5883481876
 20
6.7419299223
 30
0.0
  0
VERTEX
  5
641
  8
0
  6
CONTINUOUS
 62
     7
 10
6.5253407688
 20
6.707013979
 30
0.0
  0
VERTEX
  5
642
  8
0
  6
CONTINUOUS
 62
     7
 10
6.4632652593
 20
6.6689051392
 30
0.0
  0
VERTEX
  5
643
  8
0
  6
CONTINUOUS
 62
     7
 10
6.402202618
 20
6.6276532691
 30
0.0
  0
VERTEX
  5
644
  8
0
  6
CONTINUOUS
 62
     7
 10
6.3422323374
 20
6.583312048
 30
0.0
  0
VERTEX
  5
645
  8
0
  6
CONTINUOUS
 62
     7
 10
6.28343259
 20
6.5359392619
 30
0.0
  0
VERTEX
  5
646
  8
0
  6
CONTINUOUS
 62
     7
 10
6.2258799349
 20
6.4855965102
 30
0.0
  0
VERTEX
  5
647
  8
0
  6
CONTINUOUS
 62
     7
 10
6.1696492445
 20
6.4323494986
 30
0.0
  0
VERTEX
  5
648
  8
0
  6
CONTINUOUS
 62
     7
 10
6.1148139246
 20
6.3762675998
 30
0.0
  0
VERTEX
  5
649
  8
0
  6
CONTINUOUS
 62
     7
 10
6.0614454011
 20
6.3174237063
 30
0.0
  0
VERTEX
  5
64A
  8
0
  6
CONTINUOUS
 62
     7
 10
6.0096130466
 20
6.2558946704
 30
0.0
  0
VERTEX
  5
64B
  8
0
  6
CONTINUOUS
 62
     7
 10
5.9593844735
 20
6.1917604246
 30
0.0
  0
VERTEX
  5
64C
  8
0
  6
CONTINUOUS
 62
     7
 10
5.9108250944
 20
6.1251047146
 30
0.0
  0
SEQEND
  5
63B
  8
0
  6
CONTINUOUS
 62
     7
  0
LINE
  5
FB
  8
0
  6
CONTINUOUS
 62
     7
 10
5.4610310363
 20
7.220468969
 30
0.0
 11
5.41
 21
7.256
 31
0.0
  0
POLYLINE
  5
FC
  8
0
  6
CONTINUOUS
 62
     7
 66
     1
 10
0.0
 20
0.0
 30
0.0
  0
VERTEX
  5
64E
  8
0
  6
CONTINUOUS
 62
     7
 10
5.9108250944
 20
6.1251047146
 30
0.0
  0
VERTEX
  5
64F
  8
0
  6
CONTINUOUS
 62
     7
 10
5.9020993352
 20
6.2071099406
 30
0.0
  0
VERTEX
  5
650
  8
0
  6
CONTINUOUS
 62
     7
 10
5.890667204
 20
6.2877661422
 30
0.0
  0
VERTEX
  5
651
  8
0
  6
CONTINUOUS
 62
     7
 10
5.8765436238
 20
6.3669680139
 30
0.0
  0
VERTEX
  5
652
  8
0
  6
CONTINUOUS
 62
     7
 10
5.8597470012
 20
6.444612597
 30
0.0
  0
VERTEX
  5
653
  8
0
  6
CONTINUOUS
 62
     7
 10
5.8402991891
 20
6.5205986925
 30
0.0
  0
VERTEX
  5
654
  8
0
  6
CONTINUOUS
 62
     7
 10
5.8182255608
 20
6.594827155
 30
0.0
  0
VERTEX
  5
655
  8
0
  6
CONTINUOUS
 62
     7
 10
5.7935548258
 20
6.6672016256
 30
0.0
  0
VERTEX
  5
656
  8
0
  6
CONTINUOUS
 62
     7
 10
5.7663191404
 20
6.737627652
 30
0.0
  0
VERTEX
  5
657
  8
0
  6
CONTINUOUS
 62
     7
 10
5.736553961
 20
6.806013422
 30
0.0
  0
VERTEX
  5
658
  8
0
  6
CONTINUOUS
 62
     7
 10
5.7042981169
 20
6.87226991
 30
0.0
  0
VERTEX
  5
659
  8
0
  6
CONTINUOUS
 62
     7
 10
5.6695935728
 20
6.9363105835
 30
0.0
  0
VERTEX
  5
65A
  8
0
  6
CONTINUOUS
 62
     7
 10
5.6324855382
 20
6.9980527236
 30
0.0
  0
VERTEX
  5
65B
  8
0
  6
CONTINUOUS
 62
     7
 10
5.5930223757
 20
7.0574150778
 30
0.0
  0
VERTEX
  5
65C
  8
0
  6
CONTINUOUS
 62
     7
 10
5.5512554824
 20
7.1143207938
 30
0.0
  0
VERTEX
  5
65D
  8
0
  6
CONTINUOUS
 62
     7
 10
5.5072392525
 20
7.168695659
 30
0.0
  0
VERTEX
  5
65E
  8
0
  6
CONTINUOUS
 62
     7
 10
5.4610310367
 20
7.2204689809
 30
0.0
  0
SEQEND
  5
64D
  8
0
  6
CONTINUOUS
 62
     7
  0
LINE
  5
FD
  8
0
  6
CONTINUOUS
 62
     7
 10
6.9364286583
 20
1.7142100823
 30
0.0
 11
6.91
 21
1.6579237886
 31
0.0
  0
POLYLINE
  5
FE
  8
0
  6
CONTINUOUS
 62
     7
 66
     1
 10
0.0
 20
0.0
 30
0.0
  0
VERTEX
  5
660
  8
0
  6
CONTINUOUS
 62
     7
 10
6.9364286066
 20
1.714210083
 30
0.0
  0
VERTEX
  5
661
  8
0
  6
CONTINUOUS
 62
     7
 10
6.95055963
 20
1.7821511648
 30
0.0
  0
VERTEX
  5
662
  8
0
  6
CONTINUOUS
 62
     7
 10
6.9614913037
 20
1.8512492866
 30
0.0
  0
VERTEX
  5
663
  8
0
  6
CONTINUOUS
 62
     7
 10
6.9692095479
 20
1.9214145427
 30
0.0
  0
VERTEX
  5
664
  8
0
  6
CONTINUOUS
 62
     7
 10
6.9737043893
 20
1.9925555608
 30
0.0
  0
VERTEX
  5
665
  8
0
  6
CONTINUOUS
 62
     7
 10
6.9749699613
 20
2.0645796488
 30
0.0
  0
VERTEX
  5
666
  8
0
  6
CONTINUOUS
 62
     7
 10
6.973004504
 20
2.137392941
 30
0.0
  0
VERTEX
  5
667
  8
0
  6
CONTINUOUS
 62
     7
 10
6.9678106574
 20
2.2109006918
 30
0.0
  0
VERTEX
  5
668
  8
0
  6
CONTINUOUS
 62
     7
 10
6.9593951679
 20
2.2850071291
 30
0.0
  0
VERTEX
  5
669
  8
0
  6
CONTINUOUS
 62
     7
 10
6.9477690356
 20
2.3596156005
 30
0.0
  0
VERTEX
  5
66A
  8
0
  6
CONTINUOUS
 62
     7
 10
6.9329473668
 20
2.434629014
 30
0.0
  0
VERTEX
  5
66B
  8
0
  6
CONTINUOUS
 62
     7
 10
6.9149493747
 20
2.5099496905
 30
0.0
  0
VERTEX
  5
66C
  8
0
  6
CONTINUOUS
 62
     7
 10
6.8937986724
 20
2.5854793647
 30
0.0
  0
VERTEX
  5
66D
  8
0
  6
CONTINUOUS
 62
     7
 10
6.8695226861
 20
2.6611199175
 30
0.0
  0
VERTEX
  5
66E
  8
0
  6
CONTINUOUS
 62
     7
 10
6.8421530956
 20
2.7367724969
 30
0.0
  0
VERTEX
  5
66F
  8
0
  6
CONTINUOUS
 62
     7
 10
6.8117255405
 20
2.8123388373
 30
0.0
  0
VERTEX
  5
670
  8
0
  6
CONTINUOUS
 62
     7
 10
6.7782796202
 20
2.8877203798
 30
0.0
  0
SEQEND
  5
65F
  8
0
  6
CONTINUOUS
 62
     7
  0
LINE
  5
FF
  8
0
  6
CONTINUOUS
 62
     7
 10
6.9364286583
 20
6.7977899177
 30
0.0
 11
6.91
 21
6.8540762114
 31
0.0
  0
LINE
  5
100
  8
0
  6
CONTINUOUS
 62
     7
 10
6.6964213722
 20
5.5424213722
 30
0.0
 11
6.7782796461
 21
5.6242796461
 31
0.0
  0
POLYLINE
  5
101
  8
0
  6
CONTINUOUS
 62
     7
 66
     1
 10
0.0
 20
0.0
 30
0.0
  0
VERTEX
  5
672
  8
0
  6
CONTINUOUS
 62
     7
 10
6.7782796202
 20
5.6242796202
 30
0.0
  0
VERTEX
  5
673
  8
0
  6
CONTINUOUS
 62
     7
 10
6.8117255405
 20
5.6996611627
 30
0.0
  0
VERTEX
  5
674
  8
0
  6
CONTINUOUS
 62
     7
 10
6.8421530956
 20
5.7752275031
 30
0.0
  0
VERTEX
  5
675
  8
0
  6
CONTINUOUS
 62
     7
 10
6.8695226861
 20
5.8508800825
 30
0.0
  0
VERTEX
  5
676
  8
0
  6
CONTINUOUS
 62
     7
 10
6.8937986724
 20
5.9265206353
 30
0.0
  0
VERTEX
  5
677
  8
0
  6
CONTINUOUS
 62
     7
 10
6.9149493747
 20
6.0020503095
 30
0.0
  0
VERTEX
  5
678
  8
0
  6
CONTINUOUS
 62
     7
 10
6.9329473668
 20
6.077370986
 30
0.0
  0
VERTEX
  5
679
  8
0
  6
CONTINUOUS
 62
     7
 10
6.9477690356
 20
6.1523843995
 30
0.0
  0
VERTEX
  5
67A
  8
0
  6
CONTINUOUS
 62
     7
 10
6.9593951679
 20
6.2269928709
 30
0.0
  0
VERTEX
  5
67B
  8
0
  6
CONTINUOUS
 62
     7
 10
6.9678106574
 20
6.3010993082
 30
0.0
  0
VERTEX
  5
67C
  8
0
  6
CONTINUOUS
 62
     7
 10
6.973004504
 20
6.374607059
 30
0.0
  0
VERTEX
  5
67D
  8
0
  6
CONTINUOUS
 62
     7
 10
6.9749699613
 20
6.4474203512
 30
0.0
  0
VERTEX
  5
67E
  8
0
  6
CONTINUOUS
 62
     7
 10
6.9737043893
 20
6.5194444392
 30
0.0
  0
VERTEX
  5
67F
  8
0
  6
CONTINUOUS
 62
     7
 10
6.9692095479
 20
6.5905854573
 30
0.0
  0
VERTEX
  5
680
  8
0
  6
CONTINUOUS
 62
     7
 10
6.9614913037
 20
6.6607507134
 30
0.0
  0
VERTEX
  5
681
  8
0
  6
CONTINUOUS
 62
     7
 10
6.95055963
 20
6.7298488352
 30
0.0
  0
VERTEX
  5
682
  8
0
  6
CONTINUOUS
 62
     7
 10
6.9364286066
 20
6.797789917
 30
0.0
  0
SEQEND
  5
671
  8
0
  6
CONTINUOUS
 62
     7
  0
LINE
  5
102
  8
0
  6
CONTINUOUS
 62
     7
 10
5.4610310363
 20
1.291531031
 30
0.0
 11
5.41
 21
1.256
 31
0.0
  0
POLYLINE
  5
103
  8
0
  6
CONTINUOUS
 62
     7
 66
     1
 10
0.0
 20
0.0
 30
0.0
  0
VERTEX
  5
684
  8
0
  6
CONTINUOUS
 62
     7
 10
5.8808629072
 20
2.4987157403
 30
0.0
  0
VERTEX
  5
685
  8
0
  6
CONTINUOUS
 62
     7
 10
5.8910302364
 20
2.4607707253
 30
0.0
  0
VERTEX
  5
686
  8
0
  6
CONTINUOUS
 62
     7
 10
5.901018891
 20
2.4234925959
 30
0.0
  0
VERTEX
  5
687
  8
0
  6
CONTINUOUS
 62
     7
 10
5.9108250944
 20
2.3868952854
 30
0.0
  0
SEQEND
  5
683
  8
0
  6
CONTINUOUS
 62
     7
  0
POLYLINE
  5
104
  8
0
  6
CONTINUOUS
 62
     7
 66
     1
 10
0.0
 20
0.0
 30
0.0
  0
VERTEX
  5
689
  8
0
  6
CONTINUOUS
 62
     7
 10
5.4610310367
 20
1.2915310191
 30
0.0
  0
VERTEX
  5
68A
  8
0
  6
CONTINUOUS
 62
     7
 10
5.5072392525
 20
1.343304341
 30
0.0
  0
VERTEX
  5
68B
  8
0
  6
CONTINUOUS
 62
     7
 10
5.5512554824
 20
1.3976792062
 30
0.0
  0
VERTEX
  5
68C
  8
0
  6
CONTINUOUS
 62
     7
 10
5.5930223757
 20
1.4545849222
 30
0.0
  0
VERTEX
  5
68D
  8
0
  6
CONTINUOUS
 62
     7
 10
5.6324855382
 20
1.5139472764
 30
0.0
  0
VERTEX
  5
68E
  8
0
  6
CONTINUOUS
 62
     7
 10
5.6695935728
 20
1.5756894165
 30
0.0
  0
VERTEX
  5
68F
  8
0
  6
CONTINUOUS
 62
     7
 10
5.7042981169
 20
1.63973009
 30
0.0
  0
VERTEX
  5
690
  8
0
  6
CONTINUOUS
 62
     7
 10
5.736553961
 20
1.705986578
 30
0.0
  0
VERTEX
  5
691
  8
0
  6
CONTINUOUS
 62
     7
 10
5.7663191404
 20
1.774372348
 30
0.0
  0
VERTEX
  5
692
  8
0
  6
CONTINUOUS
 62
     7
 10
5.7935548258
 20
1.8447983744
 30
0.0
  0
VERTEX
  5
693
  8
0
  6
CONTINUOUS
 62
     7
 10
5.8182255608
 20
1.917172845
 30
0.0
  0
VERTEX
  5
694
  8
0
  6
CONTINUOUS
 62
     7
 10
5.8402991891
 20
1.9914013075
 30
0.0
  0
VERTEX
  5
695
  8
0
  6
CONTINUOUS
 62
     7
 10
5.8597470012
 20
2.067387403
 30
0.0
  0
VERTEX
  5
696
  8
0
  6
CONTINUOUS
 62
     7
 10
5.8765436238
 20
2.1450319861
 30
0.0
  0
VERTEX
  5
697
  8
0
  6
CONTINUOUS
 62
     7
 10
5.890667204
 20
2.2242338578
 30
0.0
  0
VERTEX
  5
698
  8
0
  6
CONTINUOUS
 62
     7
 10
5.9020993352
 20
2.3048900594
 30
0.0
  0
VERTEX
  5
699
  8
0
  6
CONTINUOUS
 62
     7
 10
5.9108250944
 20
2.3868952854
 30
0.0
  0
SEQEND
  5
688
  8
0
  6
CONTINUOUS
 62
     7
  0
LINE
  5
105
  8
0
  6
CONTINUOUS
 62
     7
 10
7.9517899177
 20
5.7824286583
 30
0.0
 11
8.0080762114
 21
5.756
 31
0.0
  0
POLYLINE
  5
106
  8
0
  6
CONTINUOUS
 62
     7
 66
     1
 10
0.0
 20
0.0
 30
0.0
  0
VERTEX
  5
69B
  8
0
  6
CONTINUOUS
 62
     7
 10
7.951789917
 20
5.7824286066
 30
0.0
  0
VERTEX
  5
69C
  8
0
  6
CONTINUOUS
 62
     7
 10
7.8838488352
 20
5.79655963
 30
0.0
  0
VERTEX
  5
69D
  8
0
  6
CONTINUOUS
 62
     7
 10
7.8147507134
 20
5.8074913037
 30
0.0
  0
VERTEX
  5
69E
  8
0
  6
CONTINUOUS
 62
     7
 10
7.7445854573
 20
5.8152095479
 30
0.0
  0
VERTEX
  5
69F
  8
0
  6
CONTINUOUS
 62
     7
 10
7.6734444392
 20
5.8197043893
 30
0.0
  0
VERTEX
  5
6A0
  8
0
  6
CONTINUOUS
 62
     7
 10
7.6014203512
 20
5.8209699613
 30
0.0
  0
VERTEX
  5
6A1
  8
0
  6
CONTINUOUS
 62
     7
 10
7.528607059
 20
5.819004504
 30
0.0
  0
VERTEX
  5
6A2
  8
0
  6
CONTINUOUS
 62
     7
 10
7.4550993082
 20
5.8138106574
 30
0.0
  0
VERTEX
  5
6A3
  8
0
  6
CONTINUOUS
 62
     7
 10
7.3809928709
 20
5.8053951679
 30
0.0
  0
VERTEX
  5
6A4
  8
0
  6
CONTINUOUS
 62
     7
 10
7.3063843995
 20
5.7937690356
 30
0.0
  0
VERTEX
  5
6A5
  8
0
  6
CONTINUOUS
 62
     7
 10
7.231370986
 20
5.7789473668
 30
0.0
  0
VERTEX
  5
6A6
  8
0
  6
CONTINUOUS
 62
     7
 10
7.1560503095
 20
5.7609493747
 30
0.0
  0
VERTEX
  5
6A7
  8
0
  6
CONTINUOUS
 62
     7
 10
7.0805206353
 20
5.7397986724
 30
0.0
  0
VERTEX
  5
6A8
  8
0
  6
CONTINUOUS
 62
     7
 10
7.0048800825
 20
5.7155226861
 30
0.0
  0
VERTEX
  5
6A9
  8
0
  6
CONTINUOUS
 62
     7
 10
6.9292275031
 20
5.6881530956
 30
0.0
  0
VERTEX
  5
6AA
  8
0
  6
CONTINUOUS
 62
     7
 10
6.8536611627
 20
5.6577255405
 30
0.0
  0
VERTEX
  5
6AB
  8
0
  6
CONTINUOUS
 62
     7
 10
6.7782796202
 20
5.6242796202
 30
0.0
  0
SEQEND
  5
69A
  8
0
  6
CONTINUOUS
 62
     7
  0
LINE
  5
107
  8
0
  6
CONTINUOUS
 62
     7
 10
6.8480403107
 20
1.663179046
 30
0.0
 11
6.91
 21
1.6579237886
 31
0.0
  0
POLYLINE
  5
108
  8
0
  6
CONTINUOUS
 62
     7
 66
     1
 10
0.0
 20
0.0
 30
0.0
  0
VERTEX
  5
6AD
  8
0
  6
CONTINUOUS
 62
     7
 10
5.9108250944
 20
2.3868952854
 30
0.0
  0
VERTEX
  5
6AE
  8
0
  6
CONTINUOUS
 62
     7
 10
5.9593844735
 20
2.3202395754
 30
0.0
  0
VERTEX
  5
6AF
  8
0
  6
CONTINUOUS
 62
     7
 10
6.0096130466
 20
2.2561053296
 30
0.0
  0
VERTEX
  5
6B0
  8
0
  6
CONTINUOUS
 62
     7
 10
6.0614454011
 20
2.1945762937
 30
0.0
  0
VERTEX
  5
6B1
  8
0
  6
CONTINUOUS
 62
     7
 10
6.1148139246
 20
2.1357324002
 30
0.0
  0
VERTEX
  5
6B2
  8
0
  6
CONTINUOUS
 62
     7
 10
6.1696492445
 20
2.0796505014
 30
0.0
  0
VERTEX
  5
6B3
  8
0
  6
CONTINUOUS
 62
     7
 10
6.2258799349
 20
2.0264034898
 30
0.0
  0
VERTEX
  5
6B4
  8
0
  6
CONTINUOUS
 62
     7
 10
6.28343259
 20
1.9760607381
 30
0.0
  0
VERTEX
  5
6B5
  8
0
  6
CONTINUOUS
 62
     7
 10
6.3422323374
 20
1.928687952
 30
0.0
  0
VERTEX
  5
6B6
  8
0
  6
CONTINUOUS
 62
     7
 10
6.402202618
 20
1.8843467309
 30
0.0
  0
VERTEX
  5
6B7
  8
0
  6
CONTINUOUS
 62
     7
 10
6.4632652593
 20
1.8430948608
 30
0.0
  0
VERTEX
  5
6B8
  8
0
  6
CONTINUOUS
 62
     7
 10
6.5253407688
 20
1.804986021
 30
0.0
  0
VERTEX
  5
6B9
  8
0
  6
CONTINUOUS
 62
     7
 10
6.5883481876
 20
1.7700700777
 30
0.0
  0
VERTEX
  5
6BA
  8
0
  6
CONTINUOUS
 62
     7
 10
6.6522055299
 20
1.7383922036
 30
0.0
  0
VERTEX
  5
6BB
  8
0
  6
CONTINUOUS
 62
     7
 10
6.7168296367
 20
1.7099937583
 30
0.0
  0
VERTEX
  5
6BC
  8
0
  6
CONTINUOUS
 62
     7
 10
6.7821361756
 20
1.6849117014
 30
0.0
  0
VERTEX
  5
6BD
  8
0
  6
CONTINUOUS
 62
     7
 10
6.8480403743
 20
1.6631791792
 30
0.0
  0
SEQEND
  5
6AC
  8
0
  6
CONTINUOUS
 62
     7
  0
LINE
  5
109
  8
0
  6
CONTINUOUS
 62
     7
 10
8.002820954
 20
5.6940403107
 30
0.0
 11
8.0080762114
 21
5.756
 31
0.0
  0
POLYLINE
  5
10A
  8
0
  6
CONTINUOUS
 62
     7
 66
     1
 10
0.0
 20
0.0
 30
0.0
  0
VERTEX
  5
6BF
  8
0
  6
CONTINUOUS
 62
     7
 10
7.1672842597
 20
4.7268629072
 30
0.0
  0
VERTEX
  5
6C0
  8
0
  6
CONTINUOUS
 62
     7
 10
7.2052292747
 20
4.7370302364
 30
0.0
  0
VERTEX
  5
6C1
  8
0
  6
CONTINUOUS
 62
     7
 10
7.2425074041
 20
4.747018891
 30
0.0
  0
VERTEX
  5
6C2
  8
0
  6
CONTINUOUS
 62
     7
 10
7.2791047146
 20
4.7568250944
 30
0.0
  0
SEQEND
  5
6BE
  8
0
  6
CONTINUOUS
 62
     7
  0
POLYLINE
  5
10B
  8
0
  6
CONTINUOUS
 62
     7
 66
     1
 10
0.0
 20
0.0
 30
0.0
  0
VERTEX
  5
6C4
  8
0
  6
CONTINUOUS
 62
     7
 10
7.2791047146
 20
4.7568250944
 30
0.0
  0
VERTEX
  5
6C5
  8
0
  6
CONTINUOUS
 62
     7
 10
7.3457604246
 20
4.8053844735
 30
0.0
  0
VERTEX
  5
6C6
  8
0
  6
CONTINUOUS
 62
     7
 10
7.4098946704
 20
4.8556130466
 30
0.0
  0
VERTEX
  5
6C7
  8
0
  6
CONTINUOUS
 62
     7
 10
7.4714237063
 20
4.9074454011
 30
0.0
  0
VERTEX
  5
6C8
  8
0
  6
CONTINUOUS
 62
     7
 10
7.5302675998
 20
4.9608139246
 30
0.0
  0
VERTEX
  5
6C9
  8
0
  6
CONTINUOUS
 62
     7
 10
7.5863494986
 20
5.0156492445
 30
0.0
  0
VERTEX
  5
6CA
  8
0
  6
CONTINUOUS
 62
     7
 10
7.6395965102
 20
5.0718799349
 30
0.0
  0
VERTEX
  5
6CB
  8
0
  6
CONTINUOUS
 62
     7
 10
7.6899392619
 20
5.12943259
 30
0.0
  0
VERTEX
  5
6CC
  8
0
  6
CONTINUOUS
 62
     7
 10
7.737312048
 20
5.1882323374
 30
0.0
  0
VERTEX
  5
6CD
  8
0
  6
CONTINUOUS
 62
     7
 10
7.7816532691
 20
5.248202618
 30
0.0
  0
VERTEX
  5
6CE
  8
0
  6
CONTINUOUS
 62
     7
 10
7.8229051392
 20
5.3092652593
 30
0.0
  0
VERTEX
  5
6CF
  8
0
  6
CONTINUOUS
 62
     7
 10
7.861013979
 20
5.3713407688
 30
0.0
  0
VERTEX
  5
6D0
  8
0
  6
CONTINUOUS
 62
     7
 10
7.8959299223
 20
5.4343481876
 30
0.0
  0
VERTEX
  5
6D1
  8
0
  6
CONTINUOUS
 62
     7
 10
7.9276077964
 20
5.4982055299
 30
0.0
  0
VERTEX
  5
6D2
  8
0
  6
CONTINUOUS
 62
     7
 10
7.9560062417
 20
5.5628296367
 30
0.0
  0
VERTEX
  5
6D3
  8
0
  6
CONTINUOUS
 62
     7
 10
7.9810882986
 20
5.6281361756
 30
0.0
  0
VERTEX
  5
6D4
  8
0
  6
CONTINUOUS
 62
     7
 10
8.0028208208
 20
5.6940403743
 30
0.0
  0
SEQEND
  5
6C3
  8
0
  6
CONTINUOUS
 62
     7
  0
LINE
  5
10C
  8
0
  6
CONTINUOUS
 62
     7
 10
8.374468969
 20
4.3070310363
 30
0.0
 11
8.41
 21
4.256
 31
0.0
  0
POLYLINE
  5
10D
  8
0
  6
CONTINUOUS
 62
     7
 66
     1
 10
0.0
 20
0.0
 30
0.0
  0
VERTEX
  5
6D6
  8
0
  6
CONTINUOUS
 62
     7
 10
8.3744689809
 20
4.3070310367
 30
0.0
  0
VERTEX
  5
6D7
  8
0
  6
CONTINUOUS
 62
     7
 10
8.322695659
 20
4.3532392525
 30
0.0
  0
VERTEX
  5
6D8
  8
0
  6
CONTINUOUS
 62
     7
 10
8.2683207938
 20
4.3972554824
 30
0.0
  0
VERTEX
  5
6D9
  8
0
  6
CONTINUOUS
 62
     7
 10
8.2114150778
 20
4.4390223757
 30
0.0
  0
VERTEX
  5
6DA
  8
0
  6
CONTINUOUS
 62
     7
 10
8.1520527236
 20
4.4784855382
 30
0.0
  0
VERTEX
  5
6DB
  8
0
  6
CONTINUOUS
 62
     7
 10
8.0903105835
 20
4.5155935728
 30
0.0
  0
VERTEX
  5
6DC
  8
0
  6
CONTINUOUS
 62
     7
 10
8.02626991
 20
4.5502981169
 30
0.0
  0
VERTEX
  5
6DD
  8
0
  6
CONTINUOUS
 62
     7
 10
7.960013422
 20
4.582553961
 30
0.0
  0
VERTEX
  5
6DE
  8
0
  6
CONTINUOUS
 62
     7
 10
7.891627652
 20
4.6123191404
 30
0.0
  0
VERTEX
  5
6DF
  8
0
  6
CONTINUOUS
 62
     7
 10
7.8212016256
 20
4.6395548258
 30
0.0
  0
VERTEX
  5
6E0
  8
0
  6
CONTINUOUS
 62
     7
 10
7.748827155
 20
4.6642255608
 30
0.0
  0
VERTEX
  5
6E1
  8
0
  6
CONTINUOUS
 62
     7
 10
7.6745986925
 20
4.6862991891
 30
0.0
  0
VERTEX
  5
6E2
  8
0
  6
CONTINUOUS
 62
     7
 10
7.598612597
 20
4.7057470012
 30
0.0
  0
VERTEX
  5
6E3
  8
0
  6
CONTINUOUS
 62
     7
 10
7.5209680139
 20
4.7225436238
 30
0.0
  0
VERTEX
  5
6E4
  8
0
  6
CONTINUOUS
 62
     7
 10
7.4417661422
 20
4.736667204
 30
0.0
  0
VERTEX
  5
6E5
  8
0
  6
CONTINUOUS
 62
     7
 10
7.3611099406
 20
4.7480993352
 30
0.0
  0
VERTEX
  5
6E6
  8
0
  6
CONTINUOUS
 62
     7
 10
7.2791047146
 20
4.7568250944
 30
0.0
  0
SEQEND
  5
6D5
  8
0
  6
CONTINUOUS
 62
     7
  0
LINE
  5
10E
  8
0
  6
CONTINUOUS
 62
     7
 10
8.002820954
 20
2.8179596893
 30
0.0
 11
8.0080762114
 21
2.756
 31
0.0
  0
POLYLINE
  5
10F
  8
0
  6
CONTINUOUS
 62
     7
 66
     1
 10
0.0
 20
0.0
 30
0.0
  0
VERTEX
  5
6E8
  8
0
  6
CONTINUOUS
 62
     7
 10
7.1672842597
 20
3.7851370928
 30
0.0
  0
VERTEX
  5
6E9
  8
0
  6
CONTINUOUS
 62
     7
 10
7.2052292747
 20
3.7749697636
 30
0.0
  0
VERTEX
  5
6EA
  8
0
  6
CONTINUOUS
 62
     7
 10
7.2425074041
 20
3.764981109
 30
0.0
  0
VERTEX
  5
6EB
  8
0
  6
CONTINUOUS
 62
     7
 10
7.2791047146
 20
3.7551749056
 30
0.0
  0
SEQEND
  5
6E7
  8
0
  6
CONTINUOUS
 62
     7
  0
POLYLINE
  5
110
  8
0
  6
CONTINUOUS
 62
     7
 66
     1
 10
0.0
 20
0.0
 30
0.0
  0
VERTEX
  5
6ED
  8
0
  6
CONTINUOUS
 62
     7
 10
8.0028208208
 20
2.8179596257
 30
0.0
  0
VERTEX
  5
6EE
  8
0
  6
CONTINUOUS
 62
     7
 10
7.9810882986
 20
2.8838638244
 30
0.0
  0
VERTEX
  5
6EF
  8
0
  6
CONTINUOUS
 62
     7
 10
7.9560062417
 20
2.9491703633
 30
0.0
  0
VERTEX
  5
6F0
  8
0
  6
CONTINUOUS
 62
     7
 10
7.9276077964
 20
3.0137944701
 30
0.0
  0
VERTEX
  5
6F1
  8
0
  6
CONTINUOUS
 62
     7
 10
7.8959299223
 20
3.0776518124
 30
0.0
  0
VERTEX
  5
6F2
  8
0
  6
CONTINUOUS
 62
     7
 10
7.861013979
 20
3.1406592312
 30
0.0
  0
VERTEX
  5
6F3
  8
0
  6
CONTINUOUS
 62
     7
 10
7.8229051392
 20
3.2027347407
 30
0.0
  0
VERTEX
  5
6F4
  8
0
  6
CONTINUOUS
 62
     7
 10
7.7816532691
 20
3.263797382
 30
0.0
  0
VERTEX
  5
6F5
  8
0
  6
CONTINUOUS
 62
     7
 10
7.737312048
 20
3.3237676626
 30
0.0
  0
VERTEX
  5
6F6
  8
0
  6
CONTINUOUS
 62
     7
 10
7.6899392619
 20
3.38256741
 30
0.0
  0
VERTEX
  5
6F7
  8
0
  6
CONTINUOUS
 62
     7
 10
7.6395965102
 20
3.4401200651
 30
0.0
  0
VERTEX
  5
6F8
  8
0
  6
CONTINUOUS
 62
     7
 10
7.5863494986
 20
3.4963507555
 30
0.0
  0
VERTEX
  5
6F9
  8
0
  6
CONTINUOUS
 62
     7
 10
7.5302675998
 20
3.5511860754
 30
0.0
  0
VERTEX
  5
6FA
  8
0
  6
CONTINUOUS
 62
     7
 10
7.4714237063
 20
3.6045545989
 30
0.0
  0
VERTEX
  5
6FB
  8
0
  6
CONTINUOUS
 62
     7
 10
7.4098946704
 20
3.6563869534
 30
0.0
  0
VERTEX
  5
6FC
  8
0
  6
CONTINUOUS
 62
     7
 10
7.3457604246
 20
3.7066155265
 30
0.0
  0
VERTEX
  5
6FD
  8
0
  6
CONTINUOUS
 62
     7
 10
7.2791047146
 20
3.7551749056
 30
0.0
  0
SEQEND
  5
6EC
  8
0
  6
CONTINUOUS
 62
     7
  0
LINE
  5
111
  8
0
  6
CONTINUOUS
 62
     7
 10
8.374468969
 20
4.2049689637
 30
0.0
 11
8.41
 21
4.256
 31
0.0
  0
POLYLINE
  5
112
  8
0
  6
CONTINUOUS
 62
     7
 66
     1
 10
0.0
 20
0.0
 30
0.0
  0
VERTEX
  5
6FF
  8
0
  6
CONTINUOUS
 62
     7
 10
7.2791047146
 20
3.7551749056
 30
0.0
  0
VERTEX
  5
700
  8
0
  6
CONTINUOUS
 62
     7
 10
7.3611099406
 20
3.7639006648
 30
0.0
  0
VERTEX
  5
701
  8
0
  6
CONTINUOUS
 62
     7
 10
7.4417661422
 20
3.775332796
 30
0.0
  0
VERTEX
  5
702
  8
0
  6
CONTINUOUS
 62
     7
 10
7.5209680139
 20
3.7894563762
 30
0.0
  0
VERTEX
  5
703
  8
0
  6
CONTINUOUS
 62
     7
 10
7.598612597
 20
3.8062529988
 30
0.0
  0
VERTEX
  5
704
  8
0
  6
CONTINUOUS
 62
     7
 10
7.6745986925
 20
3.8257008109
 30
0.0
  0
VERTEX
  5
705
  8
0
  6
CONTINUOUS
 62
     7
 10
7.748827155
 20
3.8477744392
 30
0.0
  0
VERTEX
  5
706
  8
0
  6
CONTINUOUS
 62
     7
 10
7.8212016256
 20
3.8724451742
 30
0.0
  0
VERTEX
  5
707
  8
0
  6
CONTINUOUS
 62
     7
 10
7.891627652
 20
3.8996808596
 30
0.0
  0
VERTEX
  5
708
  8
0
  6
CONTINUOUS
 62
     7
 10
7.960013422
 20
3.929446039
 30
0.0
  0
VERTEX
  5
709
  8
0
  6
CONTINUOUS
 62
     7
 10
8.02626991
 20
3.9617018831
 30
0.0
  0
VERTEX
  5
70A
  8
0
  6
CONTINUOUS
 62
     7
 10
8.0903105835
 20
3.9964064272
 30
0.0
  0
VERTEX
  5
70B
  8
0
  6
CONTINUOUS
 62
     7
 10
8.1520527236
 20
4.0335144618
 30
0.0
  0
VERTEX
  5
70C
  8
0
  6
CONTINUOUS
 62
     7
 10
8.2114150778
 20
4.0729776243
 30
0.0
  0
VERTEX
  5
70D
  8
0
  6
CONTINUOUS
 62
     7
 10
8.2683207938
 20
4.1147445176
 30
0.0
  0
VERTEX
  5
70E
  8
0
  6
CONTINUOUS
 62
     7
 10
8.322695659
 20
4.1587607475
 30
0.0
  0
VERTEX
  5
70F
  8
0
  6
CONTINUOUS
 62
     7
 10
8.3744689809
 20
4.2049689633
 30
0.0
  0
SEQEND
  5
6FE
  8
0
  6
CONTINUOUS
 62
     7
  0
POLYLINE
  5
113
  8
0
  6
CONTINUOUS
 62
     7
 66
     1
 10
0.0
 20
0.0
 30
0.0
  0
VERTEX
  5
711
  8
0
  6
CONTINUOUS
 62
     7
 10
3.5408952854
 20
3.7551749056
 30
0.0
  0
VERTEX
  5
712
  8
0
  6
CONTINUOUS
 62
     7
 10
3.5774925959
 20
3.764981109
 30
0.0
  0
VERTEX
  5
713
  8
0
  6
CONTINUOUS
 62
     7
 10
3.6147707253
 20
3.7749697636
 30
0.0
  0
VERTEX
  5
714
  8
0
  6
CONTINUOUS
 62
     7
 10
3.6527157403
 20
3.7851370928
 30
0.0
  0
SEQEND
  5
710
  8
0
  6
CONTINUOUS
 62
     7
  0
LINE
  5
114
  8
0
  6
CONTINUOUS
 62
     7
 10
2.41
 20
4.256
 30
0.0
 11
2.445531031
 21
4.2049689637
 31
0.0
  0
POLYLINE
  5
115
  8
0
  6
CONTINUOUS
 62
     7
 66
     1
 10
0.0
 20
0.0
 30
0.0
  0
VERTEX
  5
716
  8
0
  6
CONTINUOUS
 62
     7
 10
2.4455310191
 20
4.2049689633
 30
0.0
  0
VERTEX
  5
717
  8
0
  6
CONTINUOUS
 62
     7
 10
2.497304341
 20
4.1587607475
 30
0.0
  0
VERTEX
  5
718
  8
0
  6
CONTINUOUS
 62
     7
 10
2.5516792062
 20
4.1147445176
 30
0.0
  0
VERTEX
  5
719
  8
0
  6
CONTINUOUS
 62
     7
 10
2.6085849222
 20
4.0729776243
 30
0.0
  0
VERTEX
  5
71A
  8
0
  6
CONTINUOUS
 62
     7
 10
2.6679472764
 20
4.0335144618
 30
0.0
  0
VERTEX
  5
71B
  8
0
  6
CONTINUOUS
 62
     7
 10
2.7296894165
 20
3.9964064272
 30
0.0
  0
VERTEX
  5
71C
  8
0
  6
CONTINUOUS
 62
     7
 10
2.79373009
 20
3.9617018831
 30
0.0
  0
VERTEX
  5
71D
  8
0
  6
CONTINUOUS
 62
     7
 10
2.859986578
 20
3.929446039
 30
0.0
  0
VERTEX
  5
71E
  8
0
  6
CONTINUOUS
 62
     7
 10
2.928372348
 20
3.8996808596
 30
0.0
  0
VERTEX
  5
71F
  8
0
  6
CONTINUOUS
 62
     7
 10
2.9987983744
 20
3.8724451742
 30
0.0
  0
VERTEX
  5
720
  8
0
  6
CONTINUOUS
 62
     7
 10
3.071172845
 20
3.8477744392
 30
0.0
  0
VERTEX
  5
721
  8
0
  6
CONTINUOUS
 62
     7
 10
3.1454013075
 20
3.8257008109
 30
0.0
  0
VERTEX
  5
722
  8
0
  6
CONTINUOUS
 62
     7
 10
3.221387403
 20
3.8062529988
 30
0.0
  0
VERTEX
  5
723
  8
0
  6
CONTINUOUS
 62
     7
 10
3.2990319861
 20
3.7894563762
 30
0.0
  0
VERTEX
  5
724
  8
0
  6
CONTINUOUS
 62
     7
 10
3.3782338578
 20
3.775332796
 30
0.0
  0
VERTEX
  5
725
  8
0
  6
CONTINUOUS
 62
     7
 10
3.4588900594
 20
3.7639006648
 30
0.0
  0
VERTEX
  5
726
  8
0
  6
CONTINUOUS
 62
     7
 10
3.5408952854
 20
3.7551749056
 30
0.0
  0
SEQEND
  5
715
  8
0
  6
CONTINUOUS
 62
     7
  0
LINE
  5
116
  8
0
  6
CONTINUOUS
 62
     7
 10
2.8119237886
 20
2.756
 30
0.0
 11
2.817179046
 21
2.8179596893
 31
0.0
  0
POLYLINE
  5
117
  8
0
  6
CONTINUOUS
 62
     7
 66
     1
 10
0.0
 20
0.0
 30
0.0
  0
VERTEX
  5
728
  8
0
  6
CONTINUOUS
 62
     7
 10
3.5408952854
 20
3.7551749056
 30
0.0
  0
VERTEX
  5
729
  8
0
  6
CONTINUOUS
 62
     7
 10
3.4742395754
 20
3.7066155265
 30
0.0
  0
VERTEX
  5
72A
  8
0
  6
CONTINUOUS
 62
     7
 10
3.4101053296
 20
3.6563869534
 30
0.0
  0
VERTEX
  5
72B
  8
0
  6
CONTINUOUS
 62
     7
 10
3.3485762937
 20
3.6045545989
 30
0.0
  0
VERTEX
  5
72C
  8
0
  6
CONTINUOUS
 62
     7
 10
3.2897324002
 20
3.5511860754
 30
0.0
  0
VERTEX
  5
72D
  8
0
  6
CONTINUOUS
 62
     7
 10
3.2336505014
 20
3.4963507555
 30
0.0
  0
VERTEX
  5
72E
  8
0
  6
CONTINUOUS
 62
     7
 10
3.1804034898
 20
3.4401200651
 30
0.0
  0
VERTEX
  5
72F
  8
0
  6
CONTINUOUS
 62
     7
 10
3.1300607381
 20
3.38256741
 30
0.0
  0
VERTEX
  5
730
  8
0
  6
CONTINUOUS
 62
     7
 10
3.082687952
 20
3.3237676626
 30
0.0
  0
VERTEX
  5
731
  8
0
  6
CONTINUOUS
 62
     7
 10
3.0383467309
 20
3.263797382
 30
0.0
  0
VERTEX
  5
732
  8
0
  6
CONTINUOUS
 62
     7
 10
2.9970948608
 20
3.2027347407
 30
0.0
  0
VERTEX
  5
733
  8
0
  6
CONTINUOUS
 62
     7
 10
2.958986021
 20
3.1406592312
 30
0.0
  0
VERTEX
  5
734
  8
0
  6
CONTINUOUS
 62
     7
 10
2.9240700777
 20
3.0776518124
 30
0.0
  0
VERTEX
  5
735
  8
0
  6
CONTINUOUS
 62
     7
 10
2.8923922036
 20
3.0137944701
 30
0.0
  0
VERTEX
  5
736
  8
0
  6
CONTINUOUS
 62
     7
 10
2.8639937583
 20
2.9491703633
 30
0.0
  0
VERTEX
  5
737
  8
0
  6
CONTINUOUS
 62
     7
 10
2.8389117014
 20
2.8838638244
 30
0.0
  0
VERTEX
  5
738
  8
0
  6
CONTINUOUS
 62
     7
 10
2.8171791792
 20
2.8179596257
 30
0.0
  0
SEQEND
  5
727
  8
0
  6
CONTINUOUS
 62
     7
  0
POLYLINE
  5
118
  8
0
  6
CONTINUOUS
 62
     7
 66
     1
 10
0.0
 20
0.0
 30
0.0
  0
VERTEX
  5
73A
  8
0
  6
CONTINUOUS
 62
     7
 10
3.5408952854
 20
4.7568250944
 30
0.0
  0
VERTEX
  5
73B
  8
0
  6
CONTINUOUS
 62
     7
 10
3.5774925959
 20
4.747018891
 30
0.0
  0
VERTEX
  5
73C
  8
0
  6
CONTINUOUS
 62
     7
 10
3.6147707253
 20
4.7370302364
 30
0.0
  0
VERTEX
  5
73D
  8
0
  6
CONTINUOUS
 62
     7
 10
3.6527157403
 20
4.7268629072
 30
0.0
  0
SEQEND
  5
739
  8
0
  6
CONTINUOUS
 62
     7
  0
LINE
  5
119
  8
0
  6
CONTINUOUS
 62
     7
 10
2.8119237886
 20
5.756
 30
0.0
 11
2.817179046
 21
5.6940403107
 31
0.0
  0
POLYLINE
  5
11A
  8
0
  6
CONTINUOUS
 62
     7
 66
     1
 10
0.0
 20
0.0
 30
0.0
  0
VERTEX
  5
73F
  8
0
  6
CONTINUOUS
 62
     7
 10
2.8171791792
 20
5.6940403743
 30
0.0
  0
VERTEX
  5
740
  8
0
  6
CONTINUOUS
 62
     7
 10
2.8389117014
 20
5.6281361756
 30
0.0
  0
VERTEX
  5
741
  8
0
  6
CONTINUOUS
 62
     7
 10
2.8639937583
 20
5.5628296367
 30
0.0
  0
VERTEX
  5
742
  8
0
  6
CONTINUOUS
 62
     7
 10
2.8923922036
 20
5.4982055299
 30
0.0
  0
VERTEX
  5
743
  8
0
  6
CONTINUOUS
 62
     7
 10
2.9240700777
 20
5.4343481876
 30
0.0
  0
VERTEX
  5
744
  8
0
  6
CONTINUOUS
 62
     7
 10
2.958986021
 20
5.3713407688
 30
0.0
  0
VERTEX
  5
745
  8
0
  6
CONTINUOUS
 62
     7
 10
2.9970948608
 20
5.3092652593
 30
0.0
  0
VERTEX
  5
746
  8
0
  6
CONTINUOUS
 62
     7
 10
3.0383467309
 20
5.248202618
 30
0.0
  0
VERTEX
  5
747
  8
0
  6
CONTINUOUS
 62
     7
 10
3.082687952
 20
5.1882323374
 30
0.0
  0
VERTEX
  5
748
  8
0
  6
CONTINUOUS
 62
     7
 10
3.1300607381
 20
5.12943259
 30
0.0
  0
VERTEX
  5
749
  8
0
  6
CONTINUOUS
 62
     7
 10
3.1804034898
 20
5.0718799349
 30
0.0
  0
VERTEX
  5
74A
  8
0
  6
CONTINUOUS
 62
     7
 10
3.2336505014
 20
5.0156492445
 30
0.0
  0
VERTEX
  5
74B
  8
0
  6
CONTINUOUS
 62
     7
 10
3.2897324002
 20
4.9608139246
 30
0.0
  0
VERTEX
  5
74C
  8
0
  6
CONTINUOUS
 62
     7
 10
3.3485762937
 20
4.9074454011
 30
0.0
  0
VERTEX
  5
74D
  8
0
  6
CONTINUOUS
 62
     7
 10
3.4101053296
 20
4.8556130466
 30
0.0
  0
VERTEX
  5
74E
  8
0
  6
CONTINUOUS
 62
     7
 10
3.4742395754
 20
4.8053844735
 30
0.0
  0
VERTEX
  5
74F
  8
0
  6
CONTINUOUS
 62
     7
 10
3.5408952854
 20
4.7568250944
 30
0.0
  0
SEQEND
  5
73E
  8
0
  6
CONTINUOUS
 62
     7
  0
LINE
  5
11B
  8
0
  6
CONTINUOUS
 62
     7
 10
2.41
 20
4.256
 30
0.0
 11
2.445531031
 21
4.3070310363
 31
0.0
  0
POLYLINE
  5
11C
  8
0
  6
CONTINUOUS
 62
     7
 66
     1
 10
0.0
 20
0.0
 30
0.0
  0
VERTEX
  5
751
  8
0
  6
CONTINUOUS
 62
     7
 10
3.5408952854
 20
4.7568250944
 30
0.0
  0
VERTEX
  5
752
  8
0
  6
CONTINUOUS
 62
     7
 10
3.4588900594
 20
4.7480993352
 30
0.0
  0
VERTEX
  5
753
  8
0
  6
CONTINUOUS
 62
     7
 10
3.3782338578
 20
4.736667204
 30
0.0
  0
VERTEX
  5
754
  8
0
  6
CONTINUOUS
 62
     7
 10
3.2990319861
 20
4.7225436238
 30
0.0
  0
VERTEX
  5
755
  8
0
  6
CONTINUOUS
 62
     7
 10
3.221387403
 20
4.7057470012
 30
0.0
  0
VERTEX
  5
756
  8
0
  6
CONTINUOUS
 62
     7
 10
3.1454013075
 20
4.6862991891
 30
0.0
  0
VERTEX
  5
757
  8
0
  6
CONTINUOUS
 62
     7
 10
3.071172845
 20
4.6642255608
 30
0.0
  0
VERTEX
  5
758
  8
0
  6
CONTINUOUS
 62
     7
 10
2.9987983744
 20
4.6395548258
 30
0.0
  0
VERTEX
  5
759
  8
0
  6
CONTINUOUS
 62
     7
 10
2.928372348
 20
4.6123191404
 30
0.0
  0
VERTEX
  5
75A
  8
0
  6
CONTINUOUS
 62
     7
 10
2.859986578
 20
4.582553961
 30
0.0
  0
VERTEX
  5
75B
  8
0
  6
CONTINUOUS
 62
     7
 10
2.79373009
 20
4.5502981169
 30
0.0
  0
VERTEX
  5
75C
  8
0
  6
CONTINUOUS
 62
     7
 10
2.7296894165
 20
4.5155935728
 30
0.0
  0
VERTEX
  5
75D
  8
0
  6
CONTINUOUS
 62
     7
 10
2.6679472764
 20
4.4784855382
 30
0.0
  0
VERTEX
  5
75E
  8
0
  6
CONTINUOUS
 62
     7
 10
2.6085849222
 20
4.4390223757
 30
0.0
  0
VERTEX
  5
75F
  8
0
  6
CONTINUOUS
 62
     7
 10
2.5516792062
 20
4.3972554824
 30
0.0
  0
VERTEX
  5
760
  8
0
  6
CONTINUOUS
 62
     7
 10
2.497304341
 20
4.3532392525
 30
0.0
  0
VERTEX
  5
761
  8
0
  6
CONTINUOUS
 62
     7
 10
2.4455310191
 20
4.3070310367
 30
0.0
  0
SEQEND
  5
750
  8
0
  6
CONTINUOUS
 62
     7
  0
LINE
  5
11D
  8
0
  6
CONTINUOUS
 62
     7
 10
4.0417203539
 20
5.6242796461
 30
0.0
 11
4.1235786278
 21
5.5424213722
 31
0.0
  0
LINE
  5
11E
  8
0
  6
CONTINUOUS
 62
     7
 10
3.91
 20
6.8540762114
 30
0.0
 11
3.8835713417
 21
6.7977899177
 31
0.0
  0
POLYLINE
  5
11F
  8
0
  6
CONTINUOUS
 62
     7
 66
     1
 10
0.0
 20
0.0
 30
0.0
  0
VERTEX
  5
763
  8
0
  6
CONTINUOUS
 62
     7
 10
3.8835713934
 20
6.797789917
 30
0.0
  0
VERTEX
  5
764
  8
0
  6
CONTINUOUS
 62
     7
 10
3.86944037
 20
6.7298488352
 30
0.0
  0
VERTEX
  5
765
  8
0
  6
CONTINUOUS
 62
     7
 10
3.8585086963
 20
6.6607507134
 30
0.0
  0
VERTEX
  5
766
  8
0
  6
CONTINUOUS
 62
     7
 10
3.8507904521
 20
6.5905854573
 30
0.0
  0
VERTEX
  5
767
  8
0
  6
CONTINUOUS
 62
     7
 10
3.8462956107
 20
6.5194444392
 30
0.0
  0
VERTEX
  5
768
  8
0
  6
CONTINUOUS
 62
     7
 10
3.8450300387
 20
6.4474203512
 30
0.0
  0
VERTEX
  5
769
  8
0
  6
CONTINUOUS
 62
     7
 10
3.846995496
 20
6.374607059
 30
0.0
  0
VERTEX
  5
76A
  8
0
  6
CONTINUOUS
 62
     7
 10
3.8521893426
 20
6.3010993082
 30
0.0
  0
VERTEX
  5
76B
  8
0
  6
CONTINUOUS
 62
     7
 10
3.8606048321
 20
6.2269928709
 30
0.0
  0
VERTEX
  5
76C
  8
0
  6
CONTINUOUS
 62
     7
 10
3.8722309644
 20
6.1523843995
 30
0.0
  0
VERTEX
  5
76D
  8
0
  6
CONTINUOUS
 62
     7
 10
3.8870526332
 20
6.077370986
 30
0.0
  0
VERTEX
  5
76E
  8
0
  6
CONTINUOUS
 62
     7
 10
3.9050506253
 20
6.0020503095
 30
0.0
  0
VERTEX
  5
76F
  8
0
  6
CONTINUOUS
 62
     7
 10
3.9262013276
 20
5.9265206353
 30
0.0
  0
VERTEX
  5
770
  8
0
  6
CONTINUOUS
 62
     7
 10
3.9504773139
 20
5.8508800825
 30
0.0
  0
VERTEX
  5
771
  8
0
  6
CONTINUOUS
 62
     7
 10
3.9778469044
 20
5.7752275031
 30
0.0
  0
VERTEX
  5
772
  8
0
  6
CONTINUOUS
 62
     7
 10
4.0082744595
 20
5.6996611627
 30
0.0
  0
VERTEX
  5
773
  8
0
  6
CONTINUOUS
 62
     7
 10
4.0417203798
 20
5.6242796202
 30
0.0
  0
SEQEND
  5
762
  8
0
  6
CONTINUOUS
 62
     7
  0
LINE
  5
120
  8
0
  6
CONTINUOUS
 62
     7
 10
2.8119237886
 20
5.756
 30
0.0
 11
2.8682100823
 21
5.7824286583
 31
0.0
  0
POLYLINE
  5
121
  8
0
  6
CONTINUOUS
 62
     7
 66
     1
 10
0.0
 20
0.0
 30
0.0
  0
VERTEX
  5
775
  8
0
  6
CONTINUOUS
 62
     7
 10
4.0417203798
 20
5.6242796202
 30
0.0
  0
VERTEX
  5
776
  8
0
  6
CONTINUOUS
 62
     7
 10
3.9663388373
 20
5.6577255405
 30
0.0
  0
VERTEX
  5
777
  8
0
  6
CONTINUOUS
 62
     7
 10
3.8907724969
 20
5.6881530956
 30
0.0
  0
VERTEX
  5
778
  8
0
  6
CONTINUOUS
 62
     7
 10
3.8151199175
 20
5.7155226861
 30
0.0
  0
VERTEX
  5
779
  8
0
  6
CONTINUOUS
 62
     7
 10
3.7394793647
 20
5.7397986724
 30
0.0
  0
VERTEX
  5
77A
  8
0
  6
CONTINUOUS
 62
     7
 10
3.6639496905
 20
5.7609493747
 30
0.0
  0
VERTEX
  5
77B
  8
0
  6
CONTINUOUS
 62
     7
 10
3.588629014
 20
5.7789473668
 30
0.0
  0
VERTEX
  5
77C
  8
0
  6
CONTINUOUS
 62
     7
 10
3.5136156005
 20
5.7937690356
 30
0.0
  0
VERTEX
  5
77D
  8
0
  6
CONTINUOUS
 62
     7
 10
3.4390071291
 20
5.8053951679
 30
0.0
  0
VERTEX
  5
77E
  8
0
  6
CONTINUOUS
 62
     7
 10
3.3649006918
 20
5.8138106574
 30
0.0
  0
VERTEX
  5
77F
  8
0
  6
CONTINUOUS
 62
     7
 10
3.291392941
 20
5.819004504
 30
0.0
  0
VERTEX
  5
780
  8
0
  6
CONTINUOUS
 62
     7
 10
3.2185796488
 20
5.8209699613
 30
0.0
  0
VERTEX
  5
781
  8
0
  6
CONTINUOUS
 62
     7
 10
3.1465555608
 20
5.8197043893
 30
0.0
  0
VERTEX
  5
782
  8
0
  6
CONTINUOUS
 62
     7
 10
3.0754145427
 20
5.8152095479
 30
0.0
  0
VERTEX
  5
783
  8
0
  6
CONTINUOUS
 62
     7
 10
3.0052492866
 20
5.8074913037
 30
0.0
  0
VERTEX
  5
784
  8
0
  6
CONTINUOUS
 62
     7
 10
2.9361511648
 20
5.79655963
 30
0.0
  0
VERTEX
  5
785
  8
0
  6
CONTINUOUS
 62
     7
 10
2.868210083
 20
5.7824286066
 30
0.0
  0
SEQEND
  5
774
  8
0
  6
CONTINUOUS
 62
     7
  0
LINE
  5
122
  8
0
  6
CONTINUOUS
 62
     7
 10
5.3589689637
 20
1.291531031
 30
0.0
 11
5.41
 21
1.256
 31
0.0
  0
POLYLINE
  5
123
  8
0
  6
CONTINUOUS
 62
     7
 66
     1
 10
0.0
 20
0.0
 30
0.0
  0
VERTEX
  5
787
  8
0
  6
CONTINUOUS
 62
     7
 10
4.9391370928
 20
2.4987157403
 30
0.0
  0
VERTEX
  5
788
  8
0
  6
CONTINUOUS
 62
     7
 10
4.9289697636
 20
2.4607707253
 30
0.0
  0
VERTEX
  5
789
  8
0
  6
CONTINUOUS
 62
     7
 10
4.918981109
 20
2.4234925959
 30
0.0
  0
VERTEX
  5
78A
  8
0
  6
CONTINUOUS
 62
     7
 10
4.9091749056
 20
2.3868952854
 30
0.0
  0
SEQEND
  5
786
  8
0
  6
CONTINUOUS
 62
     7
  0
POLYLINE
  5
124
  8
0
  6
CONTINUOUS
 62
     7
 66
     1
 10
0.0
 20
0.0
 30
0.0
  0
VERTEX
  5
78C
  8
0
  6
CONTINUOUS
 62
     7
 10
4.9091749056
 20
2.3868952854
 30
0.0
  0
VERTEX
  5
78D
  8
0
  6
CONTINUOUS
 62
     7
 10
4.9179006648
 20
2.3048900594
 30
0.0
  0
VERTEX
  5
78E
  8
0
  6
CONTINUOUS
 62
     7
 10
4.929332796
 20
2.2242338578
 30
0.0
  0
VERTEX
  5
78F
  8
0
  6
CONTINUOUS
 62
     7
 10
4.9434563762
 20
2.1450319861
 30
0.0
  0
VERTEX
  5
790
  8
0
  6
CONTINUOUS
 62
     7
 10
4.9602529988
 20
2.067387403
 30
0.0
  0
VERTEX
  5
791
  8
0
  6
CONTINUOUS
 62
     7
 10
4.9797008109
 20
1.9914013075
 30
0.0
  0
VERTEX
  5
792
  8
0
  6
CONTINUOUS
 62
     7
 10
5.0017744392
 20
1.917172845
 30
0.0
  0
VERTEX
  5
793
  8
0
  6
CONTINUOUS
 62
     7
 10
5.0264451742
 20
1.8447983744
 30
0.0
  0
VERTEX
  5
794
  8
0
  6
CONTINUOUS
 62
     7
 10
5.0536808596
 20
1.774372348
 30
0.0
  0
VERTEX
  5
795
  8
0
  6
CONTINUOUS
 62
     7
 10
5.083446039
 20
1.705986578
 30
0.0
  0
VERTEX
  5
796
  8
0
  6
CONTINUOUS
 62
     7
 10
5.1157018831
 20
1.63973009
 30
0.0
  0
VERTEX
  5
797
  8
0
  6
CONTINUOUS
 62
     7
 10
5.1504064272
 20
1.5756894165
 30
0.0
  0
VERTEX
  5
798
  8
0
  6
CONTINUOUS
 62
     7
 10
5.1875144618
 20
1.5139472764
 30
0.0
  0
VERTEX
  5
799
  8
0
  6
CONTINUOUS
 62
     7
 10
5.2269776243
 20
1.4545849222
 30
0.0
  0
VERTEX
  5
79A
  8
0
  6
CONTINUOUS
 62
     7
 10
5.2687445176
 20
1.3976792062
 30
0.0
  0
VERTEX
  5
79B
  8
0
  6
CONTINUOUS
 62
     7
 10
5.3127607475
 20
1.343304341
 30
0.0
  0
VERTEX
  5
79C
  8
0
  6
CONTINUOUS
 62
     7
 10
5.3589689633
 20
1.2915310191
 30
0.0
  0
SEQEND
  5
78B
  8
0
  6
CONTINUOUS
 62
     7
  0
LINE
  5
125
  8
0
  6
CONTINUOUS
 62
     7
 10
3.9719596893
 20
1.663179046
 30
0.0
 11
3.91
 21
1.6579237886
 31
0.0
  0
POLYLINE
  5
126
  8
0
  6
CONTINUOUS
 62
     7
 66
     1
 10
0.0
 20
0.0
 30
0.0
  0
VERTEX
  5
79E
  8
0
  6
CONTINUOUS
 62
     7
 10
3.9719596257
 20
1.6631791792
 30
0.0
  0
VERTEX
  5
79F
  8
0
  6
CONTINUOUS
 62
     7
 10
4.0378638244
 20
1.6849117014
 30
0.0
  0
VERTEX
  5
7A0
  8
0
  6
CONTINUOUS
 62
     7
 10
4.1031703633
 20
1.7099937583
 30
0.0
  0
VERTEX
  5
7A1
  8
0
  6
CONTINUOUS
 62
     7
 10
4.1677944701
 20
1.7383922036
 30
0.0
  0
VERTEX
  5
7A2
  8
0
  6
CONTINUOUS
 62
     7
 10
4.2316518124
 20
1.7700700777
 30
0.0
  0
VERTEX
  5
7A3
  8
0
  6
CONTINUOUS
 62
     7
 10
4.2946592312
 20
1.804986021
 30
0.0
  0
VERTEX
  5
7A4
  8
0
  6
CONTINUOUS
 62
     7
 10
4.3567347407
 20
1.8430948608
 30
0.0
  0
VERTEX
  5
7A5
  8
0
  6
CONTINUOUS
 62
     7
 10
4.417797382
 20
1.8843467309
 30
0.0
  0
VERTEX
  5
7A6
  8
0
  6
CONTINUOUS
 62
     7
 10
4.4777676626
 20
1.928687952
 30
0.0
  0
VERTEX
  5
7A7
  8
0
  6
CONTINUOUS
 62
     7
 10
4.53656741
 20
1.9760607381
 30
0.0
  0
VERTEX
  5
7A8
  8
0
  6
CONTINUOUS
 62
     7
 10
4.5941200651
 20
2.0264034898
 30
0.0
  0
VERTEX
  5
7A9
  8
0
  6
CONTINUOUS
 62
     7
 10
4.6503507555
 20
2.0796505014
 30
0.0
  0
VERTEX
  5
7AA
  8
0
  6
CONTINUOUS
 62
     7
 10
4.7051860754
 20
2.1357324002
 30
0.0
  0
VERTEX
  5
7AB
  8
0
  6
CONTINUOUS
 62
     7
 10
4.7585545989
 20
2.1945762937
 30
0.0
  0
VERTEX
  5
7AC
  8
0
  6
CONTINUOUS
 62
     7
 10
4.8103869534
 20
2.2561053296
 30
0.0
  0
VERTEX
  5
7AD
  8
0
  6
CONTINUOUS
 62
     7
 10
4.8606155265
 20
2.3202395754
 30
0.0
  0
VERTEX
  5
7AE
  8
0
  6
CONTINUOUS
 62
     7
 10
4.9091749056
 20
2.3868952854
 30
0.0
  0
SEQEND
  5
79D
  8
0
  6
CONTINUOUS
 62
     7
  0
LINE
  5
127
  8
0
  6
CONTINUOUS
 62
     7
 10
4.0417203539
 20
2.8877203539
 30
0.0
 11
4.1235786278
 21
2.9695786278
 31
0.0
  0
LINE
  5
128
  8
0
  6
CONTINUOUS
 62
     7
 10
2.8119237886
 20
2.756
 30
0.0
 11
2.8682100823
 21
2.7295713417
 31
0.0
  0
POLYLINE
  5
129
  8
0
  6
CONTINUOUS
 62
     7
 66
     1
 10
0.0
 20
0.0
 30
0.0
  0
VERTEX
  5
7B0
  8
0
  6
CONTINUOUS
 62
     7
 10
2.868210083
 20
2.7295713934
 30
0.0
  0
VERTEX
  5
7B1
  8
0
  6
CONTINUOUS
 62
     7
 10
2.9361511648
 20
2.71544037
 30
0.0
  0
VERTEX
  5
7B2
  8
0
  6
CONTINUOUS
 62
     7
 10
3.0052492866
 20
2.7045086963
 30
0.0
  0
VERTEX
  5
7B3
  8
0
  6
CONTINUOUS
 62
     7
 10
3.0754145427
 20
2.6967904521
 30
0.0
  0
VERTEX
  5
7B4
  8
0
  6
CONTINUOUS
 62
     7
 10
3.1465555608
 20
2.6922956107
 30
0.0
  0
VERTEX
  5
7B5
  8
0
  6
CONTINUOUS
 62
     7
 10
3.2185796488
 20
2.6910300387
 30
0.0
  0
VERTEX
  5
7B6
  8
0
  6
CONTINUOUS
 62
     7
 10
3.291392941
 20
2.692995496
 30
0.0
  0
VERTEX
  5
7B7
  8
0
  6
CONTINUOUS
 62
     7
 10
3.3649006918
 20
2.6981893426
 30
0.0
  0
VERTEX
  5
7B8
  8
0
  6
CONTINUOUS
 62
     7
 10
3.4390071291
 20
2.7066048321
 30
0.0
  0
VERTEX
  5
7B9
  8
0
  6
CONTINUOUS
 62
     7
 10
3.5136156005
 20
2.7182309644
 30
0.0
  0
VERTEX
  5
7BA
  8
0
  6
CONTINUOUS
 62
     7
 10
3.588629014
 20
2.7330526332
 30
0.0
  0
VERTEX
  5
7BB
  8
0
  6
CONTINUOUS
 62
     7
 10
3.6639496905
 20
2.7510506253
 30
0.0
  0
VERTEX
  5
7BC
  8
0
  6
CONTINUOUS
 62
     7
 10
3.7394793647
 20
2.7722013276
 30
0.0
  0
VERTEX
  5
7BD
  8
0
  6
CONTINUOUS
 62
     7
 10
3.8151199175
 20
2.7964773139
 30
0.0
  0
VERTEX
  5
7BE
  8
0
  6
CONTINUOUS
 62
     7
 10
3.8907724969
 20
2.8238469044
 30
0.0
  0
VERTEX
  5
7BF
  8
0
  6
CONTINUOUS
 62
     7
 10
3.9663388373
 20
2.8542744595
 30
0.0
  0
VERTEX
  5
7C0
  8
0
  6
CONTINUOUS
 62
     7
 10
4.0417203798
 20
2.8877203798
 30
0.0
  0
SEQEND
  5
7AF
  8
0
  6
CONTINUOUS
 62
     7
  0
LINE
  5
12A
  8
0
  6
CONTINUOUS
 62
     7
 10
3.8835713417
 20
1.7142100823
 30
0.0
 11
3.91
 21
1.6579237886
 31
0.0
  0
POLYLINE
  5
12B
  8
0
  6
CONTINUOUS
 62
     7
 66
     1
 10
0.0
 20
0.0
 30
0.0
  0
VERTEX
  5
7C2
  8
0
  6
CONTINUOUS
 62
     7
 10
4.0417203798
 20
2.8877203798
 30
0.0
  0
VERTEX
  5
7C3
  8
0
  6
CONTINUOUS
 62
     7
 10
4.0082744595
 20
2.8123388373
 30
0.0
  0
VERTEX
  5
7C4
  8
0
  6
CONTINUOUS
 62
     7
 10
3.9778469044
 20
2.7367724969
 30
0.0
  0
VERTEX
  5
7C5
  8
0
  6
CONTINUOUS
 62
     7
 10
3.9504773139
 20
2.6611199175
 30
0.0
  0
VERTEX
  5
7C6
  8
0
  6
CONTINUOUS
 62
     7
 10
3.9262013276
 20
2.5854793647
 30
0.0
  0
VERTEX
  5
7C7
  8
0
  6
CONTINUOUS
 62
     7
 10
3.9050506253
 20
2.5099496905
 30
0.0
  0
VERTEX
  5
7C8
  8
0
  6
CONTINUOUS
 62
     7
 10
3.8870526332
 20
2.434629014
 30
0.0
  0
VERTEX
  5
7C9
  8
0
  6
CONTINUOUS
 62
     7
 10
3.8722309644
 20
2.3596156005
 30
0.0
  0
VERTEX
  5
7CA
  8
0
  6
CONTINUOUS
 62
     7
 10
3.8606048321
 20
2.2850071291
 30
0.0
  0
VERTEX
  5
7CB
  8
0
  6
CONTINUOUS
 62
     7
 10
3.8521893426
 20
2.2109006918
 30
0.0
  0
VERTEX
  5
7CC
  8
0
  6
CONTINUOUS
 62
     7
 10
3.846995496
 20
2.137392941
 30
0.0
  0
VERTEX
  5
7CD
  8
0
  6
CONTINUOUS
 62
     7
 10
3.8450300387
 20
2.0645796488
 30
0.0
  0
VERTEX
  5
7CE
  8
0
  6
CONTINUOUS
 62
     7
 10
3.8462956107
 20
1.9925555608
 30
0.0
  0
VERTEX
  5
7CF
  8
0
  6
CONTINUOUS
 62
     7
 10
3.8507904521
 20
1.9214145427
 30
0.0
  0
VERTEX
  5
7D0
  8
0
  6
CONTINUOUS
 62
     7
 10
3.8585086963
 20
1.8512492866
 30
0.0
  0
VERTEX
  5
7D1
  8
0
  6
CONTINUOUS
 62
     7
 10
3.86944037
 20
1.7821511648
 30
0.0
  0
VERTEX
  5
7D2
  8
0
  6
CONTINUOUS
 62
     7
 10
3.8835713934
 20
1.714210083
 30
0.0
  0
SEQEND
  5
7C1
  8
0
  6
CONTINUOUS
 62
     7
  0
ARC
  5
12C
  8
0
  6
CONTINUOUS
 62
     7
 10
5.445192979
 20
6.44155821
 30
0.0
 40
1.153271747016529
 50
14.3794155336
 51
47.5476750406
  0
LINE
  5
12D
  8
0
  6
CONTINUOUS
 62
     7
 10
6.3250635095
 20
7.6710635095
 30
0.0
 11
6.2236243226
 21
7.2924873102
 31
0.0
  0
ARC
  5
12E
  8
0
  6
CONTINUOUS
 62
     7
 10
5.5856239946
 20
6.5237570924
 30
0.0
 40
1.364947805960724
 50
14.004683857
 51
57.1981977995
  0
LINE
  5
12F
  8
0
  6
CONTINUOUS
 62
     7
 10
6.2236243226
 20
7.2924873102
 30
0.0
 11
6.2196220534
 21
7.2775506381
 31
0.0
  0
ARC
  5
130
  8
0
  6
CONTINUOUS
 62
     7
 10
5.4549650378
 20
6.3929482562
 30
0.0
 40
1.169282598840004
 50
31.2120773327
 51
49.1596181664
  0
ARC
  5
131
  8
0
  6
CONTINUOUS
 62
     7
 10
7.59555821
 20
4.220807021
 30
0.0
 40
1.15327174701652
 50
284.3794155336
 51
317.5476750406
  0
LINE
  5
132
  8
0
  6
CONTINUOUS
 62
     7
 10
8.8250635095
 20
3.3409364905
 30
0.0
 11
8.4464873102
 21
3.4423756774
 31
0.0
  0
ARC
  5
133
  8
0
  6
CONTINUOUS
 62
     7
 10
7.6777570924
 20
4.0803760054
 30
0.0
 40
1.364947805960723
 50
284.004683857
 51
327.1981977995
  0
LINE
  5
134
  8
0
  6
CONTINUOUS
 62
     7
 10
8.4464873102
 20
3.4423756774
 30
0.0
 11
8.4315506381
 21
3.4463779466
 31
0.0
  0
ARC
  5
135
  8
0
  6
CONTINUOUS
 62
     7
 10
7.5469482562
 20
4.2110349622
 30
0.0
 40
1.169282598839928
 50
301.2120773327
 51
319.1596181664
  0
LINE
  5
136
  8
0
  6
CONTINUOUS
 62
     7
 10
4.5963756774
 20
7.2924873102
 30
0.0
 11
4.6003779466
 21
7.2775506381
 31
0.0
  0
ARC
  5
137
  8
0
  6
CONTINUOUS
 62
     7
 10
4.3477000695
 20
6.1663477571
 30
0.0
 40
1.153269243889527
 50
44.3793751114
 51
77.5477035906
  0
ARC
  5
138
  8
0
  6
CONTINUOUS
 62
     7
 10
4.3804672304
 20
6.129136417
 30
0.0
 40
1.169280156826745
 50
61.2120357566
 51
79.1596166439
  0
LINE
  5
139
  8
0
  6
CONTINUOUS
 62
     7
 10
6.2236243226
 20
1.2195126898
 30
0.0
 11
6.2196220534
 21
1.2344493619
 31
0.0
  0
ARC
  5
13A
  8
0
  6
CONTINUOUS
 62
     7
 10
6.4722999305
 20
2.3456522429
 30
0.0
 40
1.153269243889527
 50
224.3793751114
 51
257.5477035906
  0
ARC
  5
13B
  8
0
  6
CONTINUOUS
 62
     7
 10
6.4395327696
 20
2.382863583
 30
0.0
 40
1.169280156826746
 50
241.2120357566
 51
259.1596166439
  0
LINE
  5
13C
  8
0
  6
CONTINUOUS
 62
     7
 10
4.4949364905
 20
7.6710635095
 30
0.0
 11
4.5963756774
 21
7.2924873102
 31
0.0
  0
ARC
  5
13D
  8
0
  6
CONTINUOUS
 62
     7
 10
4.4282157698
 20
6.3077459117
 30
0.0
 40
1.364949142244617
 50
44.0047139475
 51
87.1981817967
  0
LINE
  5
13E
  8
0
  6
CONTINUOUS
 62
     7
 10
6.3250635095
 20
0.8409364905
 30
0.0
 11
6.2236243226
 21
1.2195126898
 31
0.0
  0
ARC
  5
13F
  8
0
  6
CONTINUOUS
 62
     7
 10
6.3917842302
 20
2.2042540883
 30
0.0
 40
1.364949142244752
 50
224.0047139475
 51
267.1981817967
  0
LINE
  5
140
  8
0
  6
CONTINUOUS
 62
     7
 10
7.6328629876
 20
2.0331370124
 30
0.0
 11
7.6219285847
 21
2.0440714153
 31
0.0
  0
ARC
  5
141
  8
0
  6
CONTINUOUS
 62
     7
 10
7.2851524226
 20
3.1327418607
 30
0.0
 40
1.153270749597678
 50
254.3794104478
 51
287.5476887237
  0
ARC
  5
142
  8
0
  6
CONTINUOUS
 62
     7
 10
7.2381706765
 20
3.1485748385
 30
0.0
 40
1.169272309775906
 50
271.2120011103
 51
289.1596974613
  0
ARC
  5
143
  8
0
  6
CONTINUOUS
 62
     7
 10
5.3650349622
 20
6.3929482562
 30
0.0
 40
1.169282598840051
 50
130.8403818336
 51
148.7879226673
  0
ARC
  5
144
  8
0
  6
CONTINUOUS
 62
     7
 10
5.3745919962
 20
6.4416872238
 30
0.0
 40
1.153031421113915
 50
132.4487684222
 51
165.6241410036
  0
LINE
  5
145
  8
0
  6
CONTINUOUS
 62
     7
 10
7.91
 20
1.756
 30
0.0
 11
7.6328629876
 21
2.0331370124
 31
0.0
  0
ARC
  5
146
  8
0
  6
CONTINUOUS
 62
     7
 10
7.2861233385
 20
2.9700300032
 30
0.0
 40
1.364950999337112
 50
254.0047232703
 51
297.1981343285
  0
ARC
  5
147
  8
0
  6
CONTINUOUS
 62
     7
 10
5.2317034327
 20
6.5256705682
 30
0.0
 40
1.361892146764966
 50
122.7509036211
 51
166.0462147223
  0
ARC
  5
148
  8
0
  6
CONTINUOUS
 62
     7
 10
5.5882965673
 20
1.9863294318
 30
0.0
 40
1.361892146764967
 50
302.7509036211
 51
346.0462147223
  0
ARC
  5
149
  8
0
  6
CONTINUOUS
 62
     7
 10
5.4454080038
 20
2.0703127762
 30
0.0
 40
1.153031421113923
 50
312.4487684222
 51
345.6241410036
  0
ARC
  5
14A
  8
0
  6
CONTINUOUS
 62
     7
 10
6.5332581393
 20
6.1311524226
 30
0.0
 40
1.153270749597678
 50
344.3794104478
 51
17.5476887237
  0
LINE
  5
14B
  8
0
  6
CONTINUOUS
 62
     7
 10
7.91
 20
6.756
 30
0.0
 11
7.6328629876
 21
6.4788629876
 31
0.0
  0
ARC
  5
14C
  8
0
  6
CONTINUOUS
 62
     7
 10
6.6959699968
 20
6.1321233385
 30
0.0
 40
1.364950999337112
 50
344.0047232703
 51
27.1981343285
  0
ARC
  5
14D
  8
0
  6
CONTINUOUS
 62
     7
 10
4.3804672304
 20
2.382863583
 30
0.0
 40
1.169280156826765
 50
280.8403833561
 51
298.7879642434
  0
ARC
  5
14E
  8
0
  6
CONTINUOUS
 62
     7
 10
4.3478202528
 20
2.3454357513
 30
0.0
 40
1.153031932528732
 50
282.4487844781
 51
315.6241368199
  0
LINE
  5
14F
  8
0
  6
CONTINUOUS
 62
     7
 10
4.5963756774
 20
1.2195126898
 30
0.0
 11
4.6003779466
 21
1.2344493619
 31
0.0
  0
ARC
  5
150
  8
0
  6
CONTINUOUS
 62
     7
 10
7.3205642487
 20
3.1938202528
 30
0.0
 40
1.153031932528739
 50
12.4487844781
 51
45.6241368199
  0
ARC
  5
151
  8
0
  6
CONTINUOUS
 62
     7
 10
7.283136417
 20
3.2264672304
 30
0.0
 40
1.169280156826744
 50
10.8403833561
 51
28.7879642434
  0
ARC
  5
152
  8
0
  6
CONTINUOUS
 62
     7
 10
6.4721797472
 20
6.1665642487
 30
0.0
 40
1.153031932528724
 50
102.4487844781
 51
135.6241368199
  0
ARC
  5
153
  8
0
  6
CONTINUOUS
 62
     7
 10
6.4395327696
 20
6.129136417
 30
0.0
 40
1.169280156826726
 50
100.8403833561
 51
118.7879642434
  0
LINE
  5
154
  8
0
  6
CONTINUOUS
 62
     7
 10
7.6328629876
 20
6.4788629876
 30
0.0
 11
7.6219285847
 21
6.4679285847
 31
0.0
  0
ARC
  5
155
  8
0
  6
CONTINUOUS
 62
     7
 10
6.5174251615
 20
6.0841706765
 30
0.0
 40
1.169272309775897
 50
1.2120011103
 51
19.1596974613
  0
ARC
  5
156
  8
0
  6
CONTINUOUS
 62
     7
 10
5.4549650378
 20
2.1190517438
 30
0.0
 40
1.169282598839993
 50
310.8403818336
 51
328.7879226673
  0
ARC
  5
157
  8
0
  6
CONTINUOUS
 62
     7
 10
7.4647408462
 20
3.2755742411
 30
0.0
 40
1.361891921775489
 50
2.7508936645
 51
46.0462105914
  0
ARC
  5
158
  8
0
  6
CONTINUOUS
 62
     7
 10
6.3904257589
 20
6.3107408462
 30
0.0
 40
1.36189192177557
 50
92.7508936645
 51
136.0462105913
  0
ARC
  5
159
  8
0
  6
CONTINUOUS
 62
     7
 10
4.4295742411
 20
2.2012591538
 30
0.0
 40
1.361891921775414
 50
272.7508936645
 51
316.0462105914
  0
LINE
  5
15A
  8
0
  6
CONTINUOUS
 62
     7
 10
4.4949364905
 20
0.8409364905
 30
0.0
 11
4.5963756774
 21
1.2195126898
 31
0.0
  0
ARC
  5
15B
  8
0
  6
CONTINUOUS
 62
     7
 10
6.5174251615
 20
2.4278293235
 30
0.0
 40
1.169272309775899
 50
340.8403025387
 51
358.7879988897
  0
ARC
  5
15C
  8
0
  6
CONTINUOUS
 62
     7
 10
6.5335087704
 20
2.3808433621
 30
0.0
 40
1.153030512569317
 50
342.4487560494
 51
15.6241447791
  0
ARC
  5
15D
  8
0
  6
CONTINUOUS
 62
     7
 10
3.5348475774
 20
5.3792581393
 30
0.0
 40
1.153270749597677
 50
74.3794104478
 51
107.5476887237
  0
LINE
  5
15E
  8
0
  6
CONTINUOUS
 62
     7
 10
3.1871370124
 20
6.4788629876
 30
0.0
 11
2.91
 21
6.756
 31
0.0
  0
ARC
  5
15F
  8
0
  6
CONTINUOUS
 62
     7
 10
3.5338766615
 20
5.5419699968
 30
0.0
 40
1.364950999337101
 50
74.0047232703
 51
117.1981343285
  0
ARC
  5
160
  8
0
  6
CONTINUOUS
 62
     7
 10
7.2864442707
 20
5.5452422767
 30
0.0
 40
1.361894380900909
 50
62.7509513283
 51
106.046191073
  0
ARC
  5
161
  8
0
  6
CONTINUOUS
 62
     7
 10
7.2851566379
 20
5.3795087704
 30
0.0
 40
1.153030512569329
 50
72.4487560494
 51
105.6241447791
  0
ARC
  5
162
  8
0
  6
CONTINUOUS
 62
     7
 10
3.5818293235
 20
5.3634251615
 30
0.0
 40
1.169272309775897
 50
91.2120011103
 51
109.1596974613
  0
LINE
  5
163
  8
0
  6
CONTINUOUS
 62
     7
 10
3.1980714153
 20
6.4679285847
 30
0.0
 11
3.1871370124
 21
6.4788629876
 31
0.0
  0
ARC
  5
164
  8
0
  6
CONTINUOUS
 62
     7
 10
6.6992422767
 20
2.3795557293
 30
0.0
 40
1.361894380900919
 50
332.7509513283
 51
16.046191073
  0
LINE
  5
165
  8
0
  6
CONTINUOUS
 62
     7
 10
8.4464873102
 20
5.0696243226
 30
0.0
 11
8.4315506381
 21
5.0656220534
 31
0.0
  0
ARC
  5
166
  8
0
  6
CONTINUOUS
 62
     7
 10
7.3203477571
 20
5.3182999305
 30
0.0
 40
1.153269243889544
 50
314.3793751114
 51
347.5477035906
  0
ARC
  5
167
  8
0
  6
CONTINUOUS
 62
     7
 10
7.283136417
 20
5.2855327696
 30
0.0
 40
1.169280156826743
 50
331.2120357566
 51
349.1596166439
  0
LINE
  5
168
  8
0
  6
CONTINUOUS
 62
     7
 10
8.8250635095
 20
5.1710635095
 30
0.0
 11
8.4464873102
 21
5.0696243226
 31
0.0
  0
ARC
  5
169
  8
0
  6
CONTINUOUS
 62
     7
 10
7.4617459117
 20
5.2377842302
 30
0.0
 40
1.364949142244679
 50
314.0047139475
 51
357.1981817967
  0
ARC
  5
16A
  8
0
  6
CONTINUOUS
 62
     7
 10
7.2381706765
 20
5.3634251615
 30
0.0
 40
1.169272309775895
 50
70.8403025387
 51
88.7879988897
  0
ARC
  5
16B
  8
0
  6
CONTINUOUS
 62
     7
 10
7.5956872238
 20
4.2914080038
 30
0.0
 40
1.153031421113927
 50
42.4487684222
 51
75.6241410036
  0
ARC
  5
16C
  8
0
  6
CONTINUOUS
 62
     7
 10
7.5469482562
 20
4.3009650378
 30
0.0
 40
1.169282598840011
 50
40.8403818336
 51
58.7879226673
  0
ARC
  5
16D
  8
0
  6
CONTINUOUS
 62
     7
 10
7.6796705682
 20
4.4342965673
 30
0.0
 40
1.361892146764959
 50
32.7509036211
 51
76.0462147223
  0
ARC
  5
16E
  8
0
  6
CONTINUOUS
 62
     7
 10
3.1422429076
 20
4.4316239946
 30
0.0
 40
1.364947805960731
 50
104.004683857
 51
147.1981977995
  0
ARC
  5
16F
  8
0
  6
CONTINUOUS
 62
     7
 10
3.22444179
 20
4.291192979
 30
0.0
 40
1.153271747016519
 50
104.3794155336
 51
137.5476750406
  0
LINE
  5
170
  8
0
  6
CONTINUOUS
 62
     7
 10
2.3735126898
 20
5.0696243226
 30
0.0
 11
1.9949364905
 21
5.1710635095
 31
0.0
  0
ARC
  5
171
  8
0
  6
CONTINUOUS
 62
     7
 10
5.374807021
 20
2.07044179
 30
0.0
 40
1.153271747016516
 50
194.3794155336
 51
227.5476750406
  0
ARC
  5
172
  8
0
  6
CONTINUOUS
 62
     7
 10
5.3650349622
 20
2.1190517438
 30
0.0
 40
1.169282598840012
 50
211.2120773327
 51
229.1596181664
  0
ARC
  5
173
  8
0
  6
CONTINUOUS
 62
     7
 10
3.2730517438
 20
4.3009650378
 30
0.0
 40
1.169282598840015
 50
121.2120773327
 51
139.1596181664
  0
LINE
  5
174
  8
0
  6
CONTINUOUS
 62
     7
 10
2.3884493619
 20
5.0656220534
 30
0.0
 11
2.3735126898
 21
5.0696243226
 31
0.0
  0
ARC
  5
175
  8
0
  6
CONTINUOUS
 62
     7
 10
5.2343760054
 20
1.9882429076
 30
0.0
 40
1.364947805960735
 50
194.004683857
 51
237.1981977995
  0
ARC
  5
176
  8
0
  6
CONTINUOUS
 62
     7
 10
3.2243127762
 20
4.2205919962
 30
0.0
 40
1.153031421113922
 50
222.4487684222
 51
255.6241410036
  0
LINE
  5
177
  8
0
  6
CONTINUOUS
 62
     7
 10
2.3884493619
 20
3.4463779466
 30
0.0
 11
2.3735126898
 21
3.4423756774
 31
0.0
  0
ARC
  5
178
  8
0
  6
CONTINUOUS
 62
     7
 10
3.2730517438
 20
4.2110349622
 30
0.0
 40
1.169282598840013
 50
220.8403818336
 51
238.7879226673
  0
ARC
  5
179
  8
0
  6
CONTINUOUS
 62
     7
 10
3.1403294318
 20
4.0777034327
 30
0.0
 40
1.361892146764966
 50
212.7509036211
 51
256.0462147223
  0
LINE
  5
17A
  8
0
  6
CONTINUOUS
 62
     7
 10
2.3735126898
 20
3.4423756774
 30
0.0
 11
1.9949364905
 21
3.3409364905
 31
0.0
  0
ARC
  5
17B
  8
0
  6
CONTINUOUS
 62
     7
 10
3.4996522429
 20
3.1937000695
 30
0.0
 40
1.153269243889526
 50
134.3793751114
 51
167.5477035906
  0
ARC
  5
17C
  8
0
  6
CONTINUOUS
 62
     7
 10
3.3582540883
 20
3.2742157698
 30
0.0
 40
1.364949142244715
 50
134.0047139475
 51
177.1981817967
  0
ARC
  5
17D
  8
0
  6
CONTINUOUS
 62
     7
 10
3.536863583
 20
3.2264672304
 30
0.0
 40
1.169280156826763
 50
151.2120357566
 51
169.1596166439
  0
ARC
  5
17E
  8
0
  6
CONTINUOUS
 62
     7
 10
4.3025748385
 20
2.4278293235
 30
0.0
 40
1.169272309775924
 50
181.2120011103
 51
199.1596974613
  0
LINE
  5
17F
  8
0
  6
CONTINUOUS
 62
     7
 10
3.1871370124
 20
2.0331370124
 30
0.0
 11
3.1980714153
 21
2.0440714153
 31
0.0
  0
ARC
  5
180
  8
0
  6
CONTINUOUS
 62
     7
 10
4.2867418607
 20
2.3808475774
 30
0.0
 40
1.15327074959768
 50
164.3794104478
 51
197.5476887237
  0
ARC
  5
181
  8
0
  6
CONTINUOUS
 62
     7
 10
3.3552591538
 20
5.2364257589
 30
0.0
 40
1.361891921775469
 50
182.7508936645
 51
226.0462105914
  0
ARC
  5
182
  8
0
  6
CONTINUOUS
 62
     7
 10
3.4994357513
 20
5.3181797472
 30
0.0
 40
1.15303193252874
 50
192.4487844781
 51
225.6241368199
  0
LINE
  5
183
  8
0
  6
CONTINUOUS
 62
     7
 10
2.91
 20
1.756
 30
0.0
 11
3.1871370124
 21
2.0331370124
 31
0.0
  0
ARC
  5
184
  8
0
  6
CONTINUOUS
 62
     7
 10
4.1240300032
 20
2.3798766615
 30
0.0
 40
1.364950999337112
 50
164.0047232703
 51
207.1981343285
  0
ARC
  5
185
  8
0
  6
CONTINUOUS
 62
     7
 10
3.536863583
 20
5.2855327696
 30
0.0
 40
1.169280156826787
 50
190.8403833561
 51
208.7879642434
  0
ARC
  5
186
  8
0
  6
CONTINUOUS
 62
     7
 10
3.5348433621
 20
3.1324912296
 30
0.0
 40
1.153030512569323
 50
252.4487560494
 51
285.6241447791
  0
ARC
  5
187
  8
0
  6
CONTINUOUS
 62
     7
 10
3.5818293235
 20
3.1485748385
 30
0.0
 40
1.169272309775918
 50
250.8403025387
 51
268.7879988897
  0
ARC
  5
188
  8
0
  6
CONTINUOUS
 62
     7
 10
3.5335557293
 20
2.9667577233
 30
0.0
 40
1.361894380900914
 50
242.7509513283
 51
286.046191073
  0
ARC
  5
189
  8
0
  6
CONTINUOUS
 62
     7
 10
4.1207577233
 20
6.1324442707
 30
0.0
 40
1.361894380900918
 50
152.7509513283
 51
196.046191073
  0
ARC
  5
18A
  8
0
  6
CONTINUOUS
 62
     7
 10
4.2864912296
 20
6.1311566379
 30
0.0
 40
1.153030512569321
 50
162.4487560494
 51
195.6241447791
  0
ARC
  5
18B
  8
0
  6
CONTINUOUS
 62
     7
 10
4.3025748385
 20
6.0841706765
 30
0.0
 40
1.169272309775904
 50
160.8403025387
 51
178.7879988897
  0
POLYLINE
  5
18C
  8
0
  6
CONTINUOUS
 62
     7
 66
     1
 10
0.0
 20
0.0
 30
0.0
  0
VERTEX
  5
7D4
  8
0
  6
CONTINUOUS
 62
     7
 10
3.9019161015
 20
6.8680779317
 30
0.0
  0
VERTEX
  5
7D5
  8
0
  6
CONTINUOUS
 62
     7
 10
3.9058066832
 20
6.8613392629
 30
0.0
  0
VERTEX
  5
7D6
  8
0
  6
CONTINUOUS
 62
     7
 10
3.9099999815
 20
6.8540761201
 30
0.0
  0
SEQEND
  5
7D3
  8
0
  6
CONTINUOUS
 62
     7
  0
ARC
  5
18D
  8
0
  6
CONTINUOUS
 62
     7
 10
3.5783987632
 20
5.5654472931
 30
0.0
 40
1.342203430461802
 50
76.0523943319
 51
89.9660443837
  0
ARC
  5
18E
  8
0
  6
CONTINUOUS
 62
     7
 10
5.1930368846
 20
6.4964053363
 30
0.0
 40
1.343552527662926
 50
150.0409626419
 51
163.9405737441
  0
LINE
  5
18F
  8
0
  6
CONTINUOUS
 62
     7
 10
5.41
 20
7.256
 30
0.0
 11
5.41
 21
7.2721677919
 31
0.0
  0
ARC
  5
190
  8
0
  6
CONTINUOUS
 62
     7
 10
4.4785282833
 20
6.3058383006
 30
0.0
 40
1.342174450158579
 50
46.0522593699
 51
59.9662111296
  0
ARC
  5
191
  8
0
  6
CONTINUOUS
 62
     7
 10
6.3423032882
 20
6.3047343978
 30
0.0
 40
1.343546353121388
 50
120.0409277429
 51
133.9406017576
  0
LINE
  5
192
  8
0
  6
CONTINUOUS
 62
     7
 10
8.41
 20
4.256
 30
0.0
 11
8.4261677919
 21
4.256
 31
0.0
  0
ARC
  5
193
  8
0
  6
CONTINUOUS
 62
     7
 10
7.4587343978
 20
3.3236967118
 30
0.0
 40
1.343546353120763
 50
30.0409277429
 51
43.9406017576
  0
ARC
  5
194
  8
0
  6
CONTINUOUS
 62
     7
 10
7.4598383006
 20
5.1874717167
 30
0.0
 40
1.342174450159237
 50
316.0522593699
 51
329.9662111296
  0
POLYLINE
  5
195
  8
0
  6
CONTINUOUS
 62
     7
 66
     1
 10
0.0
 20
0.0
 30
0.0
  0
VERTEX
  5
7D8
  8
0
  6
CONTINUOUS
 62
     7
 10
8.0080761201
 20
5.7560000185
 30
0.0
  0
VERTEX
  5
7D9
  8
0
  6
CONTINUOUS
 62
     7
 10
8.0153392629
 20
5.7601933168
 30
0.0
  0
VERTEX
  5
7DA
  8
0
  6
CONTINUOUS
 62
     7
 10
8.0220779317
 20
5.7640838985
 30
0.0
  0
SEQEND
  5
7D7
  8
0
  6
CONTINUOUS
 62
     7
  0
ARC
  5
196
  8
0
  6
CONTINUOUS
 62
     7
 10
7.6504053363
 20
4.4729631154
 30
0.0
 40
1.34355252766307
 50
60.0409626419
 51
73.9405737441
  0
ARC
  5
197
  8
0
  6
CONTINUOUS
 62
     7
 10
6.7194472931
 20
6.0876012368
 30
0.0
 40
1.342203430461951
 50
346.0523943319
 51
359.9660443837
  0
POLYLINE
  5
198
  8
0
  6
CONTINUOUS
 62
     7
 66
     1
 10
0.0
 20
0.0
 30
0.0
  0
VERTEX
  5
7DC
  8
0
  6
CONTINUOUS
 62
     7
 10
6.9100000185
 20
6.8540761201
 30
0.0
  0
VERTEX
  5
7DD
  8
0
  6
CONTINUOUS
 62
     7
 10
6.9141933168
 20
6.8613392629
 30
0.0
  0
VERTEX
  5
7DE
  8
0
  6
CONTINUOUS
 62
     7
 10
6.9180838985
 20
6.8680779317
 30
0.0
  0
SEQEND
  5
7DB
  8
0
  6
CONTINUOUS
 62
     7
  0
ARC
  5
199
  8
0
  6
CONTINUOUS
 62
     7
 10
5.6282304738
 20
6.496943539
 30
0.0
 40
1.342185752657285
 50
16.05231416
 51
29.966149454
  0
POLYLINE
  5
19A
  8
0
  6
CONTINUOUS
 62
     7
 66
     1
 10
0.0
 20
0.0
 30
0.0
  0
VERTEX
  5
7E0
  8
0
  6
CONTINUOUS
 62
     7
 10
6.9100000185
 20
1.6579238799
 30
0.0
  0
VERTEX
  5
7E1
  8
0
  6
CONTINUOUS
 62
     7
 10
6.9141933168
 20
1.6506607371
 30
0.0
  0
VERTEX
  5
7E2
  8
0
  6
CONTINUOUS
 62
     7
 10
6.9180838985
 20
1.6439220683
 30
0.0
  0
SEQEND
  5
7DF
  8
0
  6
CONTINUOUS
 62
     7
  0
ARC
  5
19B
  8
0
  6
CONTINUOUS
 62
     7
 10
5.6269631154
 20
2.0155946637
 30
0.0
 40
1.34355252766295
 50
330.0409626419
 51
343.9405737441
  0
LINE
  5
19C
  8
0
  6
CONTINUOUS
 62
     7
 10
5.41
 20
1.256
 30
0.0
 11
5.41
 21
1.2398322081
 31
0.0
  0
ARC
  5
19D
  8
0
  6
CONTINUOUS
 62
     7
 10
6.3414717167
 20
2.2061616994
 30
0.0
 40
1.342174450159831
 50
226.0522593699
 51
239.9662111296
  0
POLYLINE
  5
19E
  8
0
  6
CONTINUOUS
 62
     7
 66
     1
 10
0.0
 20
0.0
 30
0.0
  0
VERTEX
  5
7E4
  8
0
  6
CONTINUOUS
 62
     7
 10
8.0080761201
 20
2.7559999815
 30
0.0
  0
VERTEX
  5
7E5
  8
0
  6
CONTINUOUS
 62
     7
 10
8.0153392629
 20
2.7518066832
 30
0.0
  0
VERTEX
  5
7E6
  8
0
  6
CONTINUOUS
 62
     7
 10
8.0220779317
 20
2.7479161015
 30
0.0
  0
SEQEND
  5
7E3
  8
0
  6
CONTINUOUS
 62
     7
  0
ARC
  5
19F
  8
0
  6
CONTINUOUS
 62
     7
 10
6.7180871935
 20
2.4242319861
 30
0.0
 40
1.343563638970178
 50
0.0410333896
 51
13.9405278948
  0
ARC
  5
1A0
  8
0
  6
CONTINUOUS
 62
     7
 10
7.2417680139
 20
5.5640871935
 30
0.0
 40
1.343563638970036
 50
90.0410333896
 51
103.9405278948
  0
ARC
  5
1A1
  8
0
  6
CONTINUOUS
 62
     7
 10
7.650943539
 20
4.0377695262
 30
0.0
 40
1.342185752657385
 50
286.05231416
 51
299.966149454
  0
ARC
  5
1A2
  8
0
  6
CONTINUOUS
 62
     7
 10
7.2416012368
 20
2.9465527069
 30
0.0
 40
1.342203430461828
 50
256.0523943319
 51
269.9660443837
  0
ARC
  5
1A3
  8
0
  6
CONTINUOUS
 62
     7
 10
4.4776967118
 20
2.2072656022
 30
0.0
 40
1.343546353120021
 50
300.0409277429
 51
313.9406017577
  0
POLYLINE
  5
1A4
  8
0
  6
CONTINUOUS
 62
     7
 66
     1
 10
0.0
 20
0.0
 30
0.0
  0
VERTEX
  5
7E8
  8
0
  6
CONTINUOUS
 62
     7
 10
3.9099999815
 20
1.6579238799
 30
0.0
  0
VERTEX
  5
7E9
  8
0
  6
CONTINUOUS
 62
     7
 10
3.9058066832
 20
1.6506607371
 30
0.0
  0
VERTEX
  5
7EA
  8
0
  6
CONTINUOUS
 62
     7
 10
3.9019161015
 20
1.6439220683
 30
0.0
  0
SEQEND
  5
7E7
  8
0
  6
CONTINUOUS
 62
     7
  0
ARC
  5
1A5
  8
0
  6
CONTINUOUS
 62
     7
 10
3.5782319861
 20
2.9479128065
 30
0.0
 40
1.343563638970012
 50
270.0410333896
 51
283.9405278948
  0
ARC
  5
1A6
  8
0
  6
CONTINUOUS
 62
     7
 10
5.1917695262
 20
2.015056461
 30
0.0
 40
1.342185752657236
 50
196.05231416
 51
209.966149454
  0
POLYLINE
  5
1A7
  8
0
  6
CONTINUOUS
 62
     7
 66
     1
 10
0.0
 20
0.0
 30
0.0
  0
VERTEX
  5
7EC
  8
0
  6
CONTINUOUS
 62
     7
 10
2.7979220683
 20
5.7640838985
 30
0.0
  0
VERTEX
  5
7ED
  8
0
  6
CONTINUOUS
 62
     7
 10
2.8046607371
 20
5.7601933168
 30
0.0
  0
VERTEX
  5
7EE
  8
0
  6
CONTINUOUS
 62
     7
 10
2.8119238799
 20
5.7560000185
 30
0.0
  0
SEQEND
  5
7EB
  8
0
  6
CONTINUOUS
 62
     7
  0
ARC
  5
1A8
  8
0
  6
CONTINUOUS
 62
     7
 10
4.1019128065
 20
6.0877680139
 30
0.0
 40
1.343563638970014
 50
180.0410333896
 51
193.9405278948
  0
ARC
  5
1A9
  8
0
  6
CONTINUOUS
 62
     7
 10
3.169056461
 20
4.4742304738
 30
0.0
 40
1.342185752657167
 50
106.05231416
 51
119.966149454
  0
POLYLINE
  5
1AA
  8
0
  6
CONTINUOUS
 62
     7
 66
     1
 10
0.0
 20
0.0
 30
0.0
  0
VERTEX
  5
7F0
  8
0
  6
CONTINUOUS
 62
     7
 10
2.7979220683
 20
2.7479161015
 30
0.0
  0
VERTEX
  5
7F1
  8
0
  6
CONTINUOUS
 62
     7
 10
2.8046607371
 20
2.7518066832
 30
0.0
  0
VERTEX
  5
7F2
  8
0
  6
CONTINUOUS
 62
     7
 10
2.8119238799
 20
2.7559999815
 30
0.0
  0
SEQEND
  5
7EF
  8
0
  6
CONTINUOUS
 62
     7
  0
ARC
  5
1AB
  8
0
  6
CONTINUOUS
 62
     7
 10
4.1005527069
 20
2.4243987632
 30
0.0
 40
1.342203430461827
 50
166.0523943319
 51
179.9660443837
  0
LINE
  5
1AC
  8
0
  6
CONTINUOUS
 62
     7
 10
2.3938322081
 20
4.256
 30
0.0
 11
2.41
 21
4.256
 31
0.0
  0
ARC
  5
1AD
  8
0
  6
CONTINUOUS
 62
     7
 10
3.3612656022
 20
5.1883032882
 30
0.0
 40
1.34354635312047
 50
210.0409277429
 51
223.9406017576
  0
ARC
  5
1AE
  8
0
  6
CONTINUOUS
 62
     7
 10
3.1695946637
 20
4.0390368846
 30
0.0
 40
1.343552527662921
 50
240.0409626419
 51
253.9405737441
  0
ARC
  5
1AF
  8
0
  6
CONTINUOUS
 62
     7
 10
3.3601616994
 20
3.3245282833
 30
0.0
 40
1.342174450159362
 50
136.0522593699
 51
149.9662111296
  0
LINE
  5
1B0
  8
0
  6
CONTINUOUS
 62
     7
 10
8.8110237438
 20
4.256
 30
0.0
 11
8.7759106679
 21
4.256
 31
0.0
  0
ARC
  5
1B1
  8
0
  6
CONTINUOUS
 62
     7
 10
7.0814707145
 20
4.5047348954
 30
0.0
 40
1.747347321633519
 50
337.9251193188
 51
351.8161463382
  0
ARC
  5
1B2
  8
0
  6
CONTINUOUS
 62
     7
 10
6.9969524911
 20
4.4937294249
 30
0.0
 40
1.794772258049366
 50
340.0838444641
 51
352.3884272072
  0
ARC
  5
1B3
  8
0
  6
CONTINUOUS
 62
     7
 10
4.3588496124
 20
5.5791854461
 30
0.0
 40
1.747330102379516
 50
97.9250565801
 51
111.8162207614
  0
LINE
  5
1B4
  8
0
  6
CONTINUOUS
 62
     7
 10
3.5542312776
 20
7.4702857143
 30
0.0
 11
3.7094881281
 21
7.201372961
 31
0.0
  0
POLYLINE
  5
1B5
  8
0
  6
CONTINUOUS
 62
     7
 66
     1
 10
0.0
 20
0.0
 30
0.0
  0
VERTEX
  5
7F4
  8
0
  6
CONTINUOUS
 62
     7
 10
4.4949364842
 20
7.6710633756
 30
0.0
  0
VERTEX
  5
7F5
  8
0
  6
CONTINUOUS
 62
     7
 10
4.4195127022
 20
7.6737731576
 30
0.0
  0
VERTEX
  5
7F6
  8
0
  6
CONTINUOUS
 62
     7
 10
4.3431754174
 20
7.6729054876
 30
0.0
  0
VERTEX
  5
7F7
  8
0
  6
CONTINUOUS
 62
     7
 10
4.2660347752
 20
7.6684618323
 30
0.0
  0
VERTEX
  5
7F8
  8
0
  6
CONTINUOUS
 62
     7
 10
4.1882020943
 20
7.6604480582
 30
0.0
  0
VERTEX
  5
7F9
  8
0
  6
CONTINUOUS
 62
     7
 10
4.1097896468
 20
7.6488764852
 30
0.0
  0
VERTEX
  5
7FA
  8
0
  6
CONTINUOUS
 62
     7
 10
4.0309102914
 20
7.6337632465
 30
0.0
  0
VERTEX
  5
7FB
  8
0
  6
CONTINUOUS
 62
     7
 10
3.9516782067
 20
7.6151300484
 30
0.0
  0
VERTEX
  5
7FC
  8
0
  6
CONTINUOUS
 62
     7
 10
3.8722073514
 20
7.593004464
 30
0.0
  0
VERTEX
  5
7FD
  8
0
  6
CONTINUOUS
 62
     7
 10
3.7926124175
 20
7.5674175862
 30
0.0
  0
VERTEX
  5
7FE
  8
0
  6
CONTINUOUS
 62
     7
 10
3.7130082438
 20
7.5384069614
 30
0.0
  0
VERTEX
  5
7FF
  8
0
  6
CONTINUOUS
 62
     7
 10
3.6335096688
 20
7.5060139489
 30
0.0
  0
VERTEX
  5
800
  8
0
  6
CONTINUOUS
 62
     7
 10
3.554231238
 20
7.470285775
 30
0.0
  0
SEQEND
  5
7F3
  8
0
  6
CONTINUOUS
 62
     7
  0
ARC
  5
1B6
  8
0
  6
CONTINUOUS
 62
     7
 10
6.030332956
 20
5.8279120415
 30
0.0
 40
1.747335463384498
 50
37.9250662836
 51
51.8161883211
  0
LINE
  5
1B7
  8
0
  6
CONTINUOUS
 62
     7
 10
7.2657687224
 20
7.4702857143
 30
0.0
 11
7.1105118719
 21
7.201372961
 31
0.0
  0
POLYLINE
  5
1B8
  8
0
  6
CONTINUOUS
 62
     7
 66
     1
 10
0.0
 20
0.0
 30
0.0
  0
VERTEX
  5
802
  8
0
  6
CONTINUOUS
 62
     7
 10
7.9100000798
 20
6.7560000798
 30
0.0
  0
VERTEX
  5
803
  8
0
  6
CONTINUOUS
 62
     7
 10
7.874634755
 20
6.8226736829
 30
0.0
  0
VERTEX
  5
804
  8
0
  6
CONTINUOUS
 62
     7
 10
7.8357147113
 20
6.8883499642
 30
0.0
  0
VERTEX
  5
805
  8
0
  6
CONTINUOUS
 62
     7
 10
7.7932959746
 20
6.9529338848
 30
0.0
  0
VERTEX
  5
806
  8
0
  6
CONTINUOUS
 62
     7
 10
7.7474397044
 20
7.0163321657
 30
0.0
  0
VERTEX
  5
807
  8
0
  6
CONTINUOUS
 62
     7
 10
7.6982118997
 20
7.0784535814
 30
0.0
  0
VERTEX
  5
808
  8
0
  6
CONTINUOUS
 62
     7
 10
7.6456838399
 20
7.1392083729
 30
0.0
  0
VERTEX
  5
809
  8
0
  6
CONTINUOUS
 62
     7
 10
7.5899312039
 20
7.1985088346
 30
0.0
  0
VERTEX
  5
80A
  8
0
  6
CONTINUOUS
 62
     7
 10
7.5310342176
 20
7.2562696073
 30
0.0
  0
VERTEX
  5
80B
  8
0
  6
CONTINUOUS
 62
     7
 10
7.4690779467
 20
7.3124076788
 30
0.0
  0
VERTEX
  5
80C
  8
0
  6
CONTINUOUS
 62
     7
 10
7.4041518567
 20
7.3668415033
 30
0.0
  0
VERTEX
  5
80D
  8
0
  6
CONTINUOUS
 62
     7
 10
7.33634952
 20
7.4194927617
 30
0.0
  0
VERTEX
  5
80E
  8
0
  6
CONTINUOUS
 62
     7
 10
7.265768762
 20
7.470285775
 30
0.0
  0
SEQEND
  5
801
  8
0
  6
CONTINUOUS
 62
     7
  0
LINE
  5
1B9
  8
0
  6
CONTINUOUS
 62
     7
 10
7.1105118719
 20
7.201372961
 30
0.0
 11
7.092955334
 21
7.1709641453
 31
0.0
  0
ARC
  5
1BA
  8
0
  6
CONTINUOUS
 62
     7
 10
5.9976100917
 20
5.7492218087
 30
0.0
 40
1.794751467134334
 50
40.0837331177
 51
52.3884626155
  0
LINE
  5
1BB
  8
0
  6
CONTINUOUS
 62
     7
 10
9.1215374448
 20
4.256
 30
0.0
 11
8.8110237438
 21
4.256
 31
0.0
  0
POLYLINE
  5
1BC
  8
0
  6
CONTINUOUS
 62
     7
 66
     1
 10
0.0
 20
0.0
 30
0.0
  0
VERTEX
  5
810
  8
0
  6
CONTINUOUS
 62
     7
 10
8.8250633756
 20
3.3409364842
 30
0.0
  0
VERTEX
  5
811
  8
0
  6
CONTINUOUS
 62
     7
 10
8.8651219795
 20
3.4049005253
 30
0.0
  0
VERTEX
  5
812
  8
0
  6
CONTINUOUS
 62
     7
 10
8.9025394406
 20
3.4714444033
 30
0.0
  0
VERTEX
  5
813
  8
0
  6
CONTINUOUS
 62
     7
 10
8.9372611994
 20
3.5404720525
 30
0.0
  0
VERTEX
  5
814
  8
0
  6
CONTINUOUS
 62
     7
 10
8.9692376834
 20
3.6118838876
 30
0.0
  0
VERTEX
  5
815
  8
0
  6
CONTINUOUS
 62
     7
 10
8.9984222529
 20
3.6855770229
 30
0.0
  0
VERTEX
  5
816
  8
0
  6
CONTINUOUS
 62
     7
 10
9.0247735485
 20
3.7614450898
 30
0.0
  0
VERTEX
  5
817
  8
0
  6
CONTINUOUS
 62
     7
 10
9.0482528506
 20
3.8393786762
 30
0.0
  0
VERTEX
  5
818
  8
0
  6
CONTINUOUS
 62
     7
 10
9.0688270129
 20
3.9192653633
 30
0.0
  0
VERTEX
  5
819
  8
0
  6
CONTINUOUS
 62
     7
 10
9.0864655292
 20
4.0009899459
 30
0.0
  0
VERTEX
  5
81A
  8
0
  6
CONTINUOUS
 62
     7
 10
9.1011437596
 20
4.0844345236
 30
0.0
  0
VERTEX
  5
81B
  8
0
  6
CONTINUOUS
 62
     7
 10
9.1128399978
 20
4.169478767
 30
0.0
  0
VERTEX
  5
81C
  8
0
  6
CONTINUOUS
 62
     7
 10
9.121537524
 20
4.256
 30
0.0
  0
SEQEND
  5
80F
  8
0
  6
CONTINUOUS
 62
     7
  0
LINE
  5
1BD
  8
0
  6
CONTINUOUS
 62
     7
 10
3.7094881281
 20
7.201372961
 30
0.0
 11
3.727044666
 21
7.1709641453
 31
0.0
  0
ARC
  5
1BE
  8
0
  6
CONTINUOUS
 62
     7
 10
4.4106469454
 20
5.5114615124
 30
0.0
 40
1.794787309047086
 50
100.0838517324
 51
112.388329827
  0
ARC
  5
1BF
  8
0
  6
CONTINUOUS
 62
     7
 10
6.4611503876
 20
2.9328145539
 30
0.0
 40
1.747330102379544
 50
277.9250565801
 51
291.8162207614
  0
LINE
  5
1C0
  8
0
  6
CONTINUOUS
 62
     7
 10
7.2657687224
 20
1.0417142857
 30
0.0
 11
7.1105118719
 21
1.310627039
 31
0.0
  0
POLYLINE
  5
1C1
  8
0
  6
CONTINUOUS
 62
     7
 66
     1
 10
0.0
 20
0.0
 30
0.0
  0
VERTEX
  5
81E
  8
0
  6
CONTINUOUS
 62
     7
 10
6.3250635158
 20
0.8409366244
 30
0.0
  0
VERTEX
  5
81F
  8
0
  6
CONTINUOUS
 62
     7
 10
6.4004872978
 20
0.8382268424
 30
0.0
  0
VERTEX
  5
820
  8
0
  6
CONTINUOUS
 62
     7
 10
6.4768245826
 20
0.8390945124
 30
0.0
  0
VERTEX
  5
821
  8
0
  6
CONTINUOUS
 62
     7
 10
6.5539652248
 20
0.8435381677
 30
0.0
  0
VERTEX
  5
822
  8
0
  6
CONTINUOUS
 62
     7
 10
6.6317979057
 20
0.8515519418
 30
0.0
  0
VERTEX
  5
823
  8
0
  6
CONTINUOUS
 62
     7
 10
6.7102103532
 20
0.8631235148
 30
0.0
  0
VERTEX
  5
824
  8
0
  6
CONTINUOUS
 62
     7
 10
6.7890897086
 20
0.8782367535
 30
0.0
  0
VERTEX
  5
825
  8
0
  6
CONTINUOUS
 62
     7
 10
6.8683217933
 20
0.8968699516
 30
0.0
  0
VERTEX
  5
826
  8
0
  6
CONTINUOUS
 62
     7
 10
6.9477926486
 20
0.918995536
 30
0.0
  0
VERTEX
  5
827
  8
0
  6
CONTINUOUS
 62
     7
 10
7.0273875825
 20
0.9445824138
 30
0.0
  0
VERTEX
  5
828
  8
0
  6
CONTINUOUS
 62
     7
 10
7.1069917562
 20
0.9735930386
 30
0.0
  0
VERTEX
  5
829
  8
0
  6
CONTINUOUS
 62
     7
 10
7.1864903312
 20
1.0059860511
 30
0.0
  0
VERTEX
  5
82A
  8
0
  6
CONTINUOUS
 62
     7
 10
7.265768762
 20
1.041714225
 30
0.0
  0
SEQEND
  5
81D
  8
0
  6
CONTINUOUS
 62
     7
  0
ARC
  5
1C2
  8
0
  6
CONTINUOUS
 62
     7
 10
7.0814707145
 20
4.0072651046
 30
0.0
 40
1.74734732163283
 50
8.1838536618
 51
22.0748806812
  0
ARC
  5
1C3
  8
0
  6
CONTINUOUS
 62
     7
 10
7.005482515
 20
4.0203600464
 30
0.0
 40
1.786040877570737
 50
7.5813792267
 51
19.946349102
  0
ARC
  5
1C4
  8
0
  6
CONTINUOUS
 62
     7
 10
5.1612651046
 20
5.9274707145
 30
0.0
 40
1.747347321633381
 50
67.9251193188
 51
81.8161463382
  0
LINE
  5
1C5
  8
0
  6
CONTINUOUS
 62
     7
 10
5.41
 20
7.9675374448
 30
0.0
 11
5.41
 21
7.6570237438
 31
0.0
  0
POLYLINE
  5
1C6
  8
0
  6
CONTINUOUS
 62
     7
 66
     1
 10
0.0
 20
0.0
 30
0.0
  0
VERTEX
  5
82C
  8
0
  6
CONTINUOUS
 62
     7
 10
6.3250635158
 20
7.6710633756
 30
0.0
  0
VERTEX
  5
82D
  8
0
  6
CONTINUOUS
 62
     7
 10
6.2610994747
 20
7.7111219795
 30
0.0
  0
VERTEX
  5
82E
  8
0
  6
CONTINUOUS
 62
     7
 10
6.1945555967
 20
7.7485394406
 30
0.0
  0
VERTEX
  5
82F
  8
0
  6
CONTINUOUS
 62
     7
 10
6.1255279475
 20
7.7832611994
 30
0.0
  0
VERTEX
  5
830
  8
0
  6
CONTINUOUS
 62
     7
 10
6.0541161124
 20
7.8152376834
 30
0.0
  0
VERTEX
  5
831
  8
0
  6
CONTINUOUS
 62
     7
 10
5.9804229771
 20
7.8444222529
 30
0.0
  0
VERTEX
  5
832
  8
0
  6
CONTINUOUS
 62
     7
 10
5.9045549102
 20
7.8707735485
 30
0.0
  0
VERTEX
  5
833
  8
0
  6
CONTINUOUS
 62
     7
 10
5.8266213238
 20
7.8942528506
 30
0.0
  0
VERTEX
  5
834
  8
0
  6
CONTINUOUS
 62
     7
 10
5.7467346367
 20
7.9148270129
 30
0.0
  0
VERTEX
  5
835
  8
0
  6
CONTINUOUS
 62
     7
 10
5.6650100541
 20
7.9324655292
 30
0.0
  0
VERTEX
  5
836
  8
0
  6
CONTINUOUS
 62
     7
 10
5.5815654764
 20
7.9471437596
 30
0.0
  0
VERTEX
  5
837
  8
0
  6
CONTINUOUS
 62
     7
 10
5.496521233
 20
7.9588399978
 30
0.0
  0
VERTEX
  5
838
  8
0
  6
CONTINUOUS
 62
     7
 10
5.41
 20
7.967537524
 30
0.0
  0
SEQEND
  5
82B
  8
0
  6
CONTINUOUS
 62
     7
  0
LINE
  5
1C7
  8
0
  6
CONTINUOUS
 62
     7
 10
7.1105118719
 20
1.310627039
 30
0.0
 11
7.092955334
 21
1.3410358547
 31
0.0
  0
ARC
  5
1C8
  8
0
  6
CONTINUOUS
 62
     7
 10
6.4093530546
 20
3.0005384876
 30
0.0
 40
1.794787309047127
 50
280.0838517324
 51
292.388329827
  0
POLYLINE
  5
1C9
  8
0
  6
CONTINUOUS
 62
     7
 66
     1
 10
0.0
 20
0.0
 30
0.0
  0
VERTEX
  5
83A
  8
0
  6
CONTINUOUS
 62
     7
 10
9.121537524
 20
4.256
 30
0.0
  0
VERTEX
  5
83B
  8
0
  6
CONTINUOUS
 62
     7
 10
9.1128399978
 20
4.342521233
 30
0.0
  0
VERTEX
  5
83C
  8
0
  6
CONTINUOUS
 62
     7
 10
9.1011437596
 20
4.4275654764
 30
0.0
  0
VERTEX
  5
83D
  8
0
  6
CONTINUOUS
 62
     7
 10
9.0864655292
 20
4.5110100541
 30
0.0
  0
VERTEX
  5
83E
  8
0
  6
CONTINUOUS
 62
     7
 10
9.0688270129
 20
4.5927346367
 30
0.0
  0
VERTEX
  5
83F
  8
0
  6
CONTINUOUS
 62
     7
 10
9.0482528506
 20
4.6726213238
 30
0.0
  0
VERTEX
  5
840
  8
0
  6
CONTINUOUS
 62
     7
 10
9.0247735485
 20
4.7505549102
 30
0.0
  0
VERTEX
  5
841
  8
0
  6
CONTINUOUS
 62
     7
 10
8.9984222529
 20
4.8264229771
 30
0.0
  0
VERTEX
  5
842
  8
0
  6
CONTINUOUS
 62
     7
 10
8.9692376834
 20
4.9001161124
 30
0.0
  0
VERTEX
  5
843
  8
0
  6
CONTINUOUS
 62
     7
 10
8.9372611994
 20
4.9715279475
 30
0.0
  0
VERTEX
  5
844
  8
0
  6
CONTINUOUS
 62
     7
 10
8.9025394406
 20
5.0405555967
 30
0.0
  0
VERTEX
  5
845
  8
0
  6
CONTINUOUS
 62
     7
 10
8.8651219795
 20
5.1070994747
 30
0.0
  0
VERTEX
  5
846
  8
0
  6
CONTINUOUS
 62
     7
 10
8.8250633756
 20
5.1710635158
 30
0.0
  0
SEQEND
  5
839
  8
0
  6
CONTINUOUS
 62
     7
  0
LINE
  5
1CA
  8
0
  6
CONTINUOUS
 62
     7
 10
5.41
 20
7.6570237438
 30
0.0
 11
5.41
 21
7.6219106679
 31
0.0
  0
ARC
  5
1CB
  8
0
  6
CONTINUOUS
 62
     7
 10
5.1722705751
 20
5.8429524911
 30
0.0
 40
1.794772258049266
 50
70.0838444641
 51
82.3884272072
  0
ARC
  5
1CC
  8
0
  6
CONTINUOUS
 62
     7
 10
4.816315329
 20
5.7555643154
 30
0.0
 40
1.786020047906014
 50
127.5813429693
 51
139.9464612975
  0
ARC
  5
1CD
  8
0
  6
CONTINUOUS
 62
     7
 10
4.789667044
 20
5.8279120415
 30
0.0
 40
1.747335463384543
 50
128.1838116789
 51
142.0749337164
  0
LINE
  5
1CE
  8
0
  6
CONTINUOUS
 62
     7
 10
5.41
 20
0.8549762562
 30
0.0
 11
5.41
 21
0.8900893321
 31
0.0
  0
ARC
  5
1CF
  8
0
  6
CONTINUOUS
 62
     7
 10
5.6587348954
 20
2.5845292855
 30
0.0
 40
1.74734732163368
 50
247.9251193188
 51
261.8161463382
  0
ARC
  5
1D0
  8
0
  6
CONTINUOUS
 62
     7
 10
5.6477294249
 20
2.6690475089
 30
0.0
 40
1.794772258049617
 50
250.0838444641
 51
262.3884272072
  0
POLYLINE
  5
1D1
  8
0
  6
CONTINUOUS
 62
     7
 66
     1
 10
0.0
 20
0.0
 30
0.0
  0
VERTEX
  5
848
  8
0
  6
CONTINUOUS
 62
     7
 10
8.624285775
 20
6.111768762
 30
0.0
  0
VERTEX
  5
849
  8
0
  6
CONTINUOUS
 62
     7
 10
8.5734927617
 20
6.18234952
 30
0.0
  0
VERTEX
  5
84A
  8
0
  6
CONTINUOUS
 62
     7
 10
8.5208415033
 20
6.2501518567
 30
0.0
  0
VERTEX
  5
84B
  8
0
  6
CONTINUOUS
 62
     7
 10
8.4664076788
 20
6.3150779467
 30
0.0
  0
VERTEX
  5
84C
  8
0
  6
CONTINUOUS
 62
     7
 10
8.4102696073
 20
6.3770342176
 30
0.0
  0
VERTEX
  5
84D
  8
0
  6
CONTINUOUS
 62
     7
 10
8.3525088346
 20
6.4359312039
 30
0.0
  0
VERTEX
  5
84E
  8
0
  6
CONTINUOUS
 62
     7
 10
8.2932083729
 20
6.4916838399
 30
0.0
  0
VERTEX
  5
84F
  8
0
  6
CONTINUOUS
 62
     7
 10
8.2324535814
 20
6.5442118997
 30
0.0
  0
VERTEX
  5
850
  8
0
  6
CONTINUOUS
 62
     7
 10
8.1703321657
 20
6.5934397044
 30
0.0
  0
VERTEX
  5
851
  8
0
  6
CONTINUOUS
 62
     7
 10
8.1069338848
 20
6.6392959746
 30
0.0
  0
VERTEX
  5
852
  8
0
  6
CONTINUOUS
 62
     7
 10
8.0423499642
 20
6.6817147113
 30
0.0
  0
VERTEX
  5
853
  8
0
  6
CONTINUOUS
 62
     7
 10
7.9766736829
 20
6.720634755
 30
0.0
  0
VERTEX
  5
854
  8
0
  6
CONTINUOUS
 62
     7
 10
7.9100000798
 20
6.7560000798
 30
0.0
  0
SEQEND
  5
847
  8
0
  6
CONTINUOUS
 62
     7
  0
LINE
  5
1D2
  8
0
  6
CONTINUOUS
 62
     7
 10
8.6242857143
 20
6.1117687224
 30
0.0
 11
8.355372961
 21
5.9565118719
 31
0.0
  0
ARC
  5
1D3
  8
0
  6
CONTINUOUS
 62
     7
 10
6.9819120415
 20
4.876332956
 30
0.0
 40
1.747335463384554
 50
38.1838116789
 51
52.0749337164
  0
LINE
  5
1D4
  8
0
  6
CONTINUOUS
 62
     7
 10
5.41
 20
0.5444625552
 30
0.0
 11
5.41
 21
0.8549762562
 31
0.0
  0
POLYLINE
  5
1D5
  8
0
  6
CONTINUOUS
 62
     7
 66
     1
 10
0.0
 20
0.0
 30
0.0
  0
VERTEX
  5
856
  8
0
  6
CONTINUOUS
 62
     7
 10
4.4949364842
 20
0.8409366244
 30
0.0
  0
VERTEX
  5
857
  8
0
  6
CONTINUOUS
 62
     7
 10
4.5589005253
 20
0.8008780205
 30
0.0
  0
VERTEX
  5
858
  8
0
  6
CONTINUOUS
 62
     7
 10
4.6254444033
 20
0.7634605594
 30
0.0
  0
VERTEX
  5
859
  8
0
  6
CONTINUOUS
 62
     7
 10
4.6944720525
 20
0.7287388006
 30
0.0
  0
VERTEX
  5
85A
  8
0
  6
CONTINUOUS
 62
     7
 10
4.7658838876
 20
0.6967623166
 30
0.0
  0
VERTEX
  5
85B
  8
0
  6
CONTINUOUS
 62
     7
 10
4.8395770229
 20
0.6675777471
 30
0.0
  0
VERTEX
  5
85C
  8
0
  6
CONTINUOUS
 62
     7
 10
4.9154450898
 20
0.6412264515
 30
0.0
  0
VERTEX
  5
85D
  8
0
  6
CONTINUOUS
 62
     7
 10
4.9933786762
 20
0.6177471494
 30
0.0
  0
VERTEX
  5
85E
  8
0
  6
CONTINUOUS
 62
     7
 10
5.0732653633
 20
0.5971729871
 30
0.0
  0
VERTEX
  5
85F
  8
0
  6
CONTINUOUS
 62
     7
 10
5.1549899459
 20
0.5795344708
 30
0.0
  0
VERTEX
  5
860
  8
0
  6
CONTINUOUS
 62
     7
 10
5.2384345236
 20
0.5648562404
 30
0.0
  0
VERTEX
  5
861
  8
0
  6
CONTINUOUS
 62
     7
 10
5.323478767
 20
0.5531600022
 30
0.0
  0
VERTEX
  5
862
  8
0
  6
CONTINUOUS
 62
     7
 10
5.41
 20
0.544462476
 30
0.0
  0
SEQEND
  5
855
  8
0
  6
CONTINUOUS
 62
     7
  0
POLYLINE
  5
1D6
  8
0
  6
CONTINUOUS
 62
     7
 66
     1
 10
0.0
 20
0.0
 30
0.0
  0
VERTEX
  5
864
  8
0
  6
CONTINUOUS
 62
     7
 10
8.624285775
 20
2.400231238
 30
0.0
  0
VERTEX
  5
865
  8
0
  6
CONTINUOUS
 62
     7
 10
8.6600139489
 20
2.4795096688
 30
0.0
  0
VERTEX
  5
866
  8
0
  6
CONTINUOUS
 62
     7
 10
8.6924069614
 20
2.5590082438
 30
0.0
  0
VERTEX
  5
867
  8
0
  6
CONTINUOUS
 62
     7
 10
8.7214175862
 20
2.6386124175
 30
0.0
  0
VERTEX
  5
868
  8
0
  6
CONTINUOUS
 62
     7
 10
8.747004464
 20
2.7182073514
 30
0.0
  0
VERTEX
  5
869
  8
0
  6
CONTINUOUS
 62
     7
 10
8.7691300484
 20
2.7976782067
 30
0.0
  0
VERTEX
  5
86A
  8
0
  6
CONTINUOUS
 62
     7
 10
8.7877632465
 20
2.8769102914
 30
0.0
  0
VERTEX
  5
86B
  8
0
  6
CONTINUOUS
 62
     7
 10
8.8028764852
 20
2.9557896468
 30
0.0
  0
VERTEX
  5
86C
  8
0
  6
CONTINUOUS
 62
     7
 10
8.8144480582
 20
3.0342020943
 30
0.0
  0
VERTEX
  5
86D
  8
0
  6
CONTINUOUS
 62
     7
 10
8.8224618323
 20
3.1120347752
 30
0.0
  0
VERTEX
  5
86E
  8
0
  6
CONTINUOUS
 62
     7
 10
8.8269054876
 20
3.1891754174
 30
0.0
  0
VERTEX
  5
86F
  8
0
  6
CONTINUOUS
 62
     7
 10
8.8277731576
 20
3.2655127022
 30
0.0
  0
VERTEX
  5
870
  8
0
  6
CONTINUOUS
 62
     7
 10
8.8250633756
 20
3.3409364842
 30
0.0
  0
SEQEND
  5
863
  8
0
  6
CONTINUOUS
 62
     7
  0
LINE
  5
1D7
  8
0
  6
CONTINUOUS
 62
     7
 10
8.6242857143
 20
2.4002312776
 30
0.0
 11
8.355372961
 21
2.5554881281
 31
0.0
  0
ARC
  5
1D8
  8
0
  6
CONTINUOUS
 62
     7
 10
6.7331854461
 20
3.2048496124
 30
0.0
 40
1.747330102379815
 50
338.1837792386
 51
352.0749434199
  0
ARC
  5
1D9
  8
0
  6
CONTINUOUS
 62
     7
 10
6.7331854461
 20
5.3071503876
 30
0.0
 40
1.747330102379815
 50
7.9250565801
 51
21.8162207614
  0
POLYLINE
  5
1DA
  8
0
  6
CONTINUOUS
 62
     7
 66
     1
 10
0.0
 20
0.0
 30
0.0
  0
VERTEX
  5
872
  8
0
  6
CONTINUOUS
 62
     7
 10
8.8250633756
 20
5.1710635158
 30
0.0
  0
VERTEX
  5
873
  8
0
  6
CONTINUOUS
 62
     7
 10
8.8277731576
 20
5.2464872978
 30
0.0
  0
VERTEX
  5
874
  8
0
  6
CONTINUOUS
 62
     7
 10
8.8269054876
 20
5.3228245826
 30
0.0
  0
VERTEX
  5
875
  8
0
  6
CONTINUOUS
 62
     7
 10
8.8224618323
 20
5.3999652248
 30
0.0
  0
VERTEX
  5
876
  8
0
  6
CONTINUOUS
 62
     7
 10
8.8144480582
 20
5.4777979057
 30
0.0
  0
VERTEX
  5
877
  8
0
  6
CONTINUOUS
 62
     7
 10
8.8028764852
 20
5.5562103532
 30
0.0
  0
VERTEX
  5
878
  8
0
  6
CONTINUOUS
 62
     7
 10
8.7877632465
 20
5.6350897086
 30
0.0
  0
VERTEX
  5
879
  8
0
  6
CONTINUOUS
 62
     7
 10
8.7691300484
 20
5.7143217933
 30
0.0
  0
VERTEX
  5
87A
  8
0
  6
CONTINUOUS
 62
     7
 10
8.747004464
 20
5.7937926486
 30
0.0
  0
VERTEX
  5
87B
  8
0
  6
CONTINUOUS
 62
     7
 10
8.7214175862
 20
5.8733875825
 30
0.0
  0
VERTEX
  5
87C
  8
0
  6
CONTINUOUS
 62
     7
 10
8.6924069614
 20
5.9529917562
 30
0.0
  0
VERTEX
  5
87D
  8
0
  6
CONTINUOUS
 62
     7
 10
8.6600139489
 20
6.0324903312
 30
0.0
  0
VERTEX
  5
87E
  8
0
  6
CONTINUOUS
 62
     7
 10
8.624285775
 20
6.111768762
 30
0.0
  0
SEQEND
  5
871
  8
0
  6
CONTINUOUS
 62
     7
  0
LINE
  5
1DB
  8
0
  6
CONTINUOUS
 62
     7
 10
8.355372961
 20
2.5554881281
 30
0.0
 11
8.3249641453
 21
2.573044666
 31
0.0
  0
ARC
  5
1DC
  8
0
  6
CONTINUOUS
 62
     7
 10
6.6738979926
 20
3.2541901576
 30
0.0
 40
1.786051241961481
 50
337.5814608341
 51
349.9463576065
  0
POLYLINE
  5
1DD
  8
0
  6
CONTINUOUS
 62
     7
 66
     1
 10
0.0
 20
0.0
 30
0.0
  0
VERTEX
  5
880
  8
0
  6
CONTINUOUS
 62
     7
 10
3.554231238
 20
7.470285775
 30
0.0
  0
VERTEX
  5
881
  8
0
  6
CONTINUOUS
 62
     7
 10
3.48365048
 20
7.4194927617
 30
0.0
  0
VERTEX
  5
882
  8
0
  6
CONTINUOUS
 62
     7
 10
3.4158481433
 20
7.3668415033
 30
0.0
  0
VERTEX
  5
883
  8
0
  6
CONTINUOUS
 62
     7
 10
3.3509220533
 20
7.3124076788
 30
0.0
  0
VERTEX
  5
884
  8
0
  6
CONTINUOUS
 62
     7
 10
3.2889657824
 20
7.2562696073
 30
0.0
  0
VERTEX
  5
885
  8
0
  6
CONTINUOUS
 62
     7
 10
3.2300687961
 20
7.1985088346
 30
0.0
  0
VERTEX
  5
886
  8
0
  6
CONTINUOUS
 62
     7
 10
3.1743161601
 20
7.1392083729
 30
0.0
  0
VERTEX
  5
887
  8
0
  6
CONTINUOUS
 62
     7
 10
3.1217881003
 20
7.0784535814
 30
0.0
  0
VERTEX
  5
888
  8
0
  6
CONTINUOUS
 62
     7
 10
3.0725602956
 20
7.0163321657
 30
0.0
  0
VERTEX
  5
889
  8
0
  6
CONTINUOUS
 62
     7
 10
3.0267040254
 20
6.9529338848
 30
0.0
  0
VERTEX
  5
88A
  8
0
  6
CONTINUOUS
 62
     7
 10
2.9842852887
 20
6.8883499642
 30
0.0
  0
VERTEX
  5
88B
  8
0
  6
CONTINUOUS
 62
     7
 10
2.945365245
 20
6.8226736829
 30
0.0
  0
VERTEX
  5
88C
  8
0
  6
CONTINUOUS
 62
     7
 10
2.9099999202
 20
6.7560000798
 30
0.0
  0
SEQEND
  5
87F
  8
0
  6
CONTINUOUS
 62
     7
  0
LINE
  5
1DE
  8
0
  6
CONTINUOUS
 62
     7
 10
8.355372961
 20
5.9565118719
 30
0.0
 11
8.3249641453
 21
5.938955334
 31
0.0
  0
ARC
  5
1DF
  8
0
  6
CONTINUOUS
 62
     7
 10
6.9095643154
 20
4.849684671
 30
0.0
 40
1.78602004790596
 50
37.5813429693
 51
49.9464612975
  0
ARC
  5
1E0
  8
0
  6
CONTINUOUS
 62
     7
 10
6.6654615124
 20
5.2553530546
 30
0.0
 40
1.794787309047059
 50
10.0838517324
 51
22.388329827
  0
ARC
  5
1E1
  8
0
  6
CONTINUOUS
 62
     7
 10
5.1612651046
 20
2.5845292855
 30
0.0
 40
1.747347321632625
 50
278.1838536618
 51
292.0748806812
  0
POLYLINE
  5
1E2
  8
0
  6
CONTINUOUS
 62
     7
 66
     1
 10
0.0
 20
0.0
 30
0.0
  0
VERTEX
  5
88E
  8
0
  6
CONTINUOUS
 62
     7
 10
5.41
 20
0.544462476
 30
0.0
  0
VERTEX
  5
88F
  8
0
  6
CONTINUOUS
 62
     7
 10
5.496521233
 20
0.5531600022
 30
0.0
  0
VERTEX
  5
890
  8
0
  6
CONTINUOUS
 62
     7
 10
5.5815654764
 20
0.5648562404
 30
0.0
  0
VERTEX
  5
891
  8
0
  6
CONTINUOUS
 62
     7
 10
5.6650100541
 20
0.5795344708
 30
0.0
  0
VERTEX
  5
892
  8
0
  6
CONTINUOUS
 62
     7
 10
5.7467346367
 20
0.5971729871
 30
0.0
  0
VERTEX
  5
893
  8
0
  6
CONTINUOUS
 62
     7
 10
5.8266213238
 20
0.6177471494
 30
0.0
  0
VERTEX
  5
894
  8
0
  6
CONTINUOUS
 62
     7
 10
5.9045549102
 20
0.6412264515
 30
0.0
  0
VERTEX
  5
895
  8
0
  6
CONTINUOUS
 62
     7
 10
5.9804229771
 20
0.6675777471
 30
0.0
  0
VERTEX
  5
896
  8
0
  6
CONTINUOUS
 62
     7
 10
6.0541161124
 20
0.6967623166
 30
0.0
  0
VERTEX
  5
897
  8
0
  6
CONTINUOUS
 62
     7
 10
6.1255279475
 20
0.7287388006
 30
0.0
  0
VERTEX
  5
898
  8
0
  6
CONTINUOUS
 62
     7
 10
6.1945555967
 20
0.7634605594
 30
0.0
  0
VERTEX
  5
899
  8
0
  6
CONTINUOUS
 62
     7
 10
6.2610994747
 20
0.8008780205
 30
0.0
  0
VERTEX
  5
89A
  8
0
  6
CONTINUOUS
 62
     7
 10
6.3250635158
 20
0.8409366244
 30
0.0
  0
SEQEND
  5
88D
  8
0
  6
CONTINUOUS
 62
     7
  0
ARC
  5
1E3
  8
0
  6
CONTINUOUS
 62
     7
 10
3.9167781913
 20
4.8436100917
 30
0.0
 40
1.794751467134349
 50
130.0837331177
 51
142.3884626155
  0
LINE
  5
1E4
  8
0
  6
CONTINUOUS
 62
     7
 10
2.4950358547
 20
5.938955334
 30
0.0
 11
2.464627039
 21
5.9565118719
 31
0.0
  0
ARC
  5
1E5
  8
0
  6
CONTINUOUS
 62
     7
 10
3.8380879585
 20
4.876332956
 30
0.0
 40
1.747335463384541
 50
127.9250662836
 51
141.8161883211
  0
POLYLINE
  5
1E6
  8
0
  6
CONTINUOUS
 62
     7
 66
     1
 10
0.0
 20
0.0
 30
0.0
  0
VERTEX
  5
89C
  8
0
  6
CONTINUOUS
 62
     7
 10
7.265768762
 20
7.470285775
 30
0.0
  0
VERTEX
  5
89D
  8
0
  6
CONTINUOUS
 62
     7
 10
7.1864903312
 20
7.5060139489
 30
0.0
  0
VERTEX
  5
89E
  8
0
  6
CONTINUOUS
 62
     7
 10
7.1069917562
 20
7.5384069614
 30
0.0
  0
VERTEX
  5
89F
  8
0
  6
CONTINUOUS
 62
     7
 10
7.0273875825
 20
7.5674175862
 30
0.0
  0
VERTEX
  5
8A0
  8
0
  6
CONTINUOUS
 62
     7
 10
6.9477926486
 20
7.593004464
 30
0.0
  0
VERTEX
  5
8A1
  8
0
  6
CONTINUOUS
 62
     7
 10
6.8683217933
 20
7.6151300484
 30
0.0
  0
VERTEX
  5
8A2
  8
0
  6
CONTINUOUS
 62
     7
 10
6.7890897086
 20
7.6337632465
 30
0.0
  0
VERTEX
  5
8A3
  8
0
  6
CONTINUOUS
 62
     7
 10
6.7102103532
 20
7.6488764852
 30
0.0
  0
VERTEX
  5
8A4
  8
0
  6
CONTINUOUS
 62
     7
 10
6.6317979057
 20
7.6604480582
 30
0.0
  0
VERTEX
  5
8A5
  8
0
  6
CONTINUOUS
 62
     7
 10
6.5539652248
 20
7.6684618323
 30
0.0
  0
VERTEX
  5
8A6
  8
0
  6
CONTINUOUS
 62
     7
 10
6.4768245826
 20
7.6729054876
 30
0.0
  0
VERTEX
  5
8A7
  8
0
  6
CONTINUOUS
 62
     7
 10
6.4004872978
 20
7.6737731576
 30
0.0
  0
VERTEX
  5
8A8
  8
0
  6
CONTINUOUS
 62
     7
 10
6.3250635158
 20
7.6710633756
 30
0.0
  0
SEQEND
  5
89B
  8
0
  6
CONTINUOUS
 62
     7
  0
ARC
  5
1E7
  8
0
  6
CONTINUOUS
 62
     7
 10
6.4611503876
 20
5.5791854461
 30
0.0
 40
1.747330102379524
 50
68.1837792386
 51
82.0749434199
  0
LINE
  5
1E8
  8
0
  6
CONTINUOUS
 62
     7
 10
2.464627039
 20
5.9565118719
 30
0.0
 11
2.1957142857
 21
6.1117687224
 31
0.0
  0
POLYLINE
  5
1E9
  8
0
  6
CONTINUOUS
 62
     7
 66
     1
 10
0.0
 20
0.0
 30
0.0
  0
VERTEX
  5
8AA
  8
0
  6
CONTINUOUS
 62
     7
 10
2.9099999202
 20
6.7560000798
 30
0.0
  0
VERTEX
  5
8AB
  8
0
  6
CONTINUOUS
 62
     7
 10
2.8433263171
 20
6.720634755
 30
0.0
  0
VERTEX
  5
8AC
  8
0
  6
CONTINUOUS
 62
     7
 10
2.7776500358
 20
6.6817147113
 30
0.0
  0
VERTEX
  5
8AD
  8
0
  6
CONTINUOUS
 62
     7
 10
2.7130661152
 20
6.6392959746
 30
0.0
  0
VERTEX
  5
8AE
  8
0
  6
CONTINUOUS
 62
     7
 10
2.6496678343
 20
6.5934397044
 30
0.0
  0
VERTEX
  5
8AF
  8
0
  6
CONTINUOUS
 62
     7
 10
2.5875464186
 20
6.5442118997
 30
0.0
  0
VERTEX
  5
8B0
  8
0
  6
CONTINUOUS
 62
     7
 10
2.5267916271
 20
6.4916838399
 30
0.0
  0
VERTEX
  5
8B1
  8
0
  6
CONTINUOUS
 62
     7
 10
2.4674911654
 20
6.4359312039
 30
0.0
  0
VERTEX
  5
8B2
  8
0
  6
CONTINUOUS
 62
     7
 10
2.4097303927
 20
6.3770342176
 30
0.0
  0
VERTEX
  5
8B3
  8
0
  6
CONTINUOUS
 62
     7
 10
2.3535923212
 20
6.3150779467
 30
0.0
  0
VERTEX
  5
8B4
  8
0
  6
CONTINUOUS
 62
     7
 10
2.2991584967
 20
6.2501518567
 30
0.0
  0
VERTEX
  5
8B5
  8
0
  6
CONTINUOUS
 62
     7
 10
2.2465072383
 20
6.18234952
 30
0.0
  0
VERTEX
  5
8B6
  8
0
  6
CONTINUOUS
 62
     7
 10
2.195714225
 20
6.111768762
 30
0.0
  0
SEQEND
  5
8A9
  8
0
  6
CONTINUOUS
 62
     7
  0
ARC
  5
1EA
  8
0
  6
CONTINUOUS
 62
     7
 10
6.4118098424
 20
5.5198979926
 30
0.0
 40
1.786051241961549
 50
67.5814608341
 51
79.9463576065
  0
ARC
  5
1EB
  8
0
  6
CONTINUOUS
 62
     7
 10
5.1743600464
 20
2.660517485
 30
0.0
 40
1.786040877570564
 50
277.5813792267
 51
289.946349102
  0
ARC
  5
1EC
  8
0
  6
CONTINUOUS
 62
     7
 10
6.9819120415
 20
3.635667044
 30
0.0
 40
1.747335463384559
 50
307.9250662836
 51
321.8161883211
  0
ARC
  5
1ED
  8
0
  6
CONTINUOUS
 62
     7
 10
6.9032218087
 20
3.6683899083
 30
0.0
 40
1.79475146713431
 50
310.0837331177
 51
322.3884626155
  0
ARC
  5
1EE
  8
0
  6
CONTINUOUS
 62
     7
 10
4.3588496124
 20
2.9328145539
 30
0.0
 40
1.747330102379499
 50
248.1837792386
 51
262.0749434199
  0
LINE
  5
1EF
  8
0
  6
CONTINUOUS
 62
     7
 10
3.7094881281
 20
1.310627039
 30
0.0
 11
3.727044666
 21
1.3410358547
 31
0.0
  0
ARC
  5
1F0
  8
0
  6
CONTINUOUS
 62
     7
 10
4.4081901576
 20
2.9921020074
 30
0.0
 40
1.786051241961598
 50
247.5814608341
 51
259.9463576065
  0
ARC
  5
1F1
  8
0
  6
CONTINUOUS
 62
     7
 10
6.030332956
 20
2.6840879585
 30
0.0
 40
1.747335463384497
 50
308.1838116789
 51
322.0749337164
  0
ARC
  5
1F2
  8
0
  6
CONTINUOUS
 62
     7
 10
6.003684671
 20
2.7564356846
 30
0.0
 40
1.786020047905997
 50
307.5813429693
 51
319.9464612975
  0
POLYLINE
  5
1F3
  8
0
  6
CONTINUOUS
 62
     7
 66
     1
 10
0.0
 20
0.0
 30
0.0
  0
VERTEX
  5
8B8
  8
0
  6
CONTINUOUS
 62
     7
 10
7.9100000798
 20
1.7559999202
 30
0.0
  0
VERTEX
  5
8B9
  8
0
  6
CONTINUOUS
 62
     7
 10
7.9766736829
 20
1.791365245
 30
0.0
  0
VERTEX
  5
8BA
  8
0
  6
CONTINUOUS
 62
     7
 10
8.0423499642
 20
1.8302852887
 30
0.0
  0
VERTEX
  5
8BB
  8
0
  6
CONTINUOUS
 62
     7
 10
8.1069338848
 20
1.8727040254
 30
0.0
  0
VERTEX
  5
8BC
  8
0
  6
CONTINUOUS
 62
     7
 10
8.1703321657
 20
1.9185602956
 30
0.0
  0
VERTEX
  5
8BD
  8
0
  6
CONTINUOUS
 62
     7
 10
8.2324535814
 20
1.9677881003
 30
0.0
  0
VERTEX
  5
8BE
  8
0
  6
CONTINUOUS
 62
     7
 10
8.2932083729
 20
2.0203161601
 30
0.0
  0
VERTEX
  5
8BF
  8
0
  6
CONTINUOUS
 62
     7
 10
8.3525088346
 20
2.0760687961
 30
0.0
  0
VERTEX
  5
8C0
  8
0
  6
CONTINUOUS
 62
     7
 10
8.4102696073
 20
2.1349657824
 30
0.0
  0
VERTEX
  5
8C1
  8
0
  6
CONTINUOUS
 62
     7
 10
8.4664076788
 20
2.1969220533
 30
0.0
  0
VERTEX
  5
8C2
  8
0
  6
CONTINUOUS
 62
     7
 10
8.5208415033
 20
2.2618481433
 30
0.0
  0
VERTEX
  5
8C3
  8
0
  6
CONTINUOUS
 62
     7
 10
8.5734927617
 20
2.32965048
 30
0.0
  0
VERTEX
  5
8C4
  8
0
  6
CONTINUOUS
 62
     7
 10
8.624285775
 20
2.400231238
 30
0.0
  0
SEQEND
  5
8B7
  8
0
  6
CONTINUOUS
 62
     7
  0
POLYLINE
  5
1F4
  8
0
  6
CONTINUOUS
 62
     7
 66
     1
 10
0.0
 20
0.0
 30
0.0
  0
VERTEX
  5
8C6
  8
0
  6
CONTINUOUS
 62
     7
 10
7.265768762
 20
1.041714225
 30
0.0
  0
VERTEX
  5
8C7
  8
0
  6
CONTINUOUS
 62
     7
 10
7.33634952
 20
1.0925072383
 30
0.0
  0
VERTEX
  5
8C8
  8
0
  6
CONTINUOUS
 62
     7
 10
7.4041518567
 20
1.1451584967
 30
0.0
  0
VERTEX
  5
8C9
  8
0
  6
CONTINUOUS
 62
     7
 10
7.4690779467
 20
1.1995923212
 30
0.0
  0
VERTEX
  5
8CA
  8
0
  6
CONTINUOUS
 62
     7
 10
7.5310342176
 20
1.2557303927
 30
0.0
  0
VERTEX
  5
8CB
  8
0
  6
CONTINUOUS
 62
     7
 10
7.5899312039
 20
1.3134911654
 30
0.0
  0
VERTEX
  5
8CC
  8
0
  6
CONTINUOUS
 62
     7
 10
7.6456838399
 20
1.3727916271
 30
0.0
  0
VERTEX
  5
8CD
  8
0
  6
CONTINUOUS
 62
     7
 10
7.6982118997
 20
1.4335464186
 30
0.0
  0
VERTEX
  5
8CE
  8
0
  6
CONTINUOUS
 62
     7
 10
7.7474397044
 20
1.4956678343
 30
0.0
  0
VERTEX
  5
8CF
  8
0
  6
CONTINUOUS
 62
     7
 10
7.7932959746
 20
1.5590661152
 30
0.0
  0
VERTEX
  5
8D0
  8
0
  6
CONTINUOUS
 62
     7
 10
7.8357147113
 20
1.6236500358
 30
0.0
  0
VERTEX
  5
8D1
  8
0
  6
CONTINUOUS
 62
     7
 10
7.874634755
 20
1.6893263171
 30
0.0
  0
VERTEX
  5
8D2
  8
0
  6
CONTINUOUS
 62
     7
 10
7.9100000798
 20
1.7559999202
 30
0.0
  0
SEQEND
  5
8C5
  8
0
  6
CONTINUOUS
 62
     7
  0
POLYLINE
  5
1F5
  8
0
  6
CONTINUOUS
 62
     7
 66
     1
 10
0.0
 20
0.0
 30
0.0
  0
VERTEX
  5
8D4
  8
0
  6
CONTINUOUS
 62
     7
 10
3.554231238
 20
1.041714225
 30
0.0
  0
VERTEX
  5
8D5
  8
0
  6
CONTINUOUS
 62
     7
 10
3.6335096688
 20
1.0059860511
 30
0.0
  0
VERTEX
  5
8D6
  8
0
  6
CONTINUOUS
 62
     7
 10
3.7130082438
 20
0.9735930386
 30
0.0
  0
VERTEX
  5
8D7
  8
0
  6
CONTINUOUS
 62
     7
 10
3.7926124175
 20
0.9445824138
 30
0.0
  0
VERTEX
  5
8D8
  8
0
  6
CONTINUOUS
 62
     7
 10
3.8722073514
 20
0.918995536
 30
0.0
  0
VERTEX
  5
8D9
  8
0
  6
CONTINUOUS
 62
     7
 10
3.9516782067
 20
0.8968699516
 30
0.0
  0
VERTEX
  5
8DA
  8
0
  6
CONTINUOUS
 62
     7
 10
4.0309102914
 20
0.8782367535
 30
0.0
  0
VERTEX
  5
8DB
  8
0
  6
CONTINUOUS
 62
     7
 10
4.1097896468
 20
0.8631235148
 30
0.0
  0
VERTEX
  5
8DC
  8
0
  6
CONTINUOUS
 62
     7
 10
4.1882020943
 20
0.8515519418
 30
0.0
  0
VERTEX
  5
8DD
  8
0
  6
CONTINUOUS
 62
     7
 10
4.2660347752
 20
0.8435381677
 30
0.0
  0
VERTEX
  5
8DE
  8
0
  6
CONTINUOUS
 62
     7
 10
4.3431754174
 20
0.8390945124
 30
0.0
  0
VERTEX
  5
8DF
  8
0
  6
CONTINUOUS
 62
     7
 10
4.4195127022
 20
0.8382268424
 30
0.0
  0
VERTEX
  5
8E0
  8
0
  6
CONTINUOUS
 62
     7
 10
4.4949364842
 20
0.8409366244
 30
0.0
  0
SEQEND
  5
8D3
  8
0
  6
CONTINUOUS
 62
     7
  0
LINE
  5
1F6
  8
0
  6
CONTINUOUS
 62
     7
 10
3.5542312776
 20
1.0417142857
 30
0.0
 11
3.7094881281
 21
1.310627039
 31
0.0
  0
POLYLINE
  5
1F7
  8
0
  6
CONTINUOUS
 62
     7
 66
     1
 10
0.0
 20
0.0
 30
0.0
  0
VERTEX
  5
8E2
  8
0
  6
CONTINUOUS
 62
     7
 10
5.41
 20
7.967537524
 30
0.0
  0
VERTEX
  5
8E3
  8
0
  6
CONTINUOUS
 62
     7
 10
5.323478767
 20
7.9588399978
 30
0.0
  0
VERTEX
  5
8E4
  8
0
  6
CONTINUOUS
 62
     7
 10
5.2384345236
 20
7.9471437596
 30
0.0
  0
VERTEX
  5
8E5
  8
0
  6
CONTINUOUS
 62
     7
 10
5.1549899459
 20
7.9324655292
 30
0.0
  0
VERTEX
  5
8E6
  8
0
  6
CONTINUOUS
 62
     7
 10
5.0732653633
 20
7.9148270129
 30
0.0
  0
VERTEX
  5
8E7
  8
0
  6
CONTINUOUS
 62
     7
 10
4.9933786762
 20
7.8942528506
 30
0.0
  0
VERTEX
  5
8E8
  8
0
  6
CONTINUOUS
 62
     7
 10
4.9154450898
 20
7.8707735485
 30
0.0
  0
VERTEX
  5
8E9
  8
0
  6
CONTINUOUS
 62
     7
 10
4.8395770229
 20
7.8444222529
 30
0.0
  0
VERTEX
  5
8EA
  8
0
  6
CONTINUOUS
 62
     7
 10
4.7658838876
 20
7.8152376834
 30
0.0
  0
VERTEX
  5
8EB
  8
0
  6
CONTINUOUS
 62
     7
 10
4.6944720525
 20
7.7832611994
 30
0.0
  0
VERTEX
  5
8EC
  8
0
  6
CONTINUOUS
 62
     7
 10
4.6254444033
 20
7.7485394406
 30
0.0
  0
VERTEX
  5
8ED
  8
0
  6
CONTINUOUS
 62
     7
 10
4.5589005253
 20
7.7111219795
 30
0.0
  0
VERTEX
  5
8EE
  8
0
  6
CONTINUOUS
 62
     7
 10
4.4949364842
 20
7.6710633756
 30
0.0
  0
SEQEND
  5
8E1
  8
0
  6
CONTINUOUS
 62
     7
  0
ARC
  5
1F8
  8
0
  6
CONTINUOUS
 62
     7
 10
5.6587348954
 20
5.9274707145
 30
0.0
 40
1.74734732163303
 50
98.1838536618
 51
112.0748806812
  0
ARC
  5
1F9
  8
0
  6
CONTINUOUS
 62
     7
 10
5.6456399536
 20
5.851482515
 30
0.0
 40
1.78604087757099
 50
97.5813792267
 51
109.946349102
  0
ARC
  5
1FA
  8
0
  6
CONTINUOUS
 62
     7
 10
4.0868145539
 20
3.2048496124
 30
0.0
 40
1.747330102379569
 50
187.9250565801
 51
201.8162207614
  0
LINE
  5
1FB
  8
0
  6
CONTINUOUS
 62
     7
 10
2.1957142857
 20
2.4002312776
 30
0.0
 11
2.464627039
 21
2.5554881281
 31
0.0
  0
POLYLINE
  5
1FC
  8
0
  6
CONTINUOUS
 62
     7
 66
     1
 10
0.0
 20
0.0
 30
0.0
  0
VERTEX
  5
8F0
  8
0
  6
CONTINUOUS
 62
     7
 10
1.9949366244
 20
3.3409364842
 30
0.0
  0
VERTEX
  5
8F1
  8
0
  6
CONTINUOUS
 62
     7
 10
1.9922268424
 20
3.2655127022
 30
0.0
  0
VERTEX
  5
8F2
  8
0
  6
CONTINUOUS
 62
     7
 10
1.9930945124
 20
3.1891754174
 30
0.0
  0
VERTEX
  5
8F3
  8
0
  6
CONTINUOUS
 62
     7
 10
1.9975381677
 20
3.1120347752
 30
0.0
  0
VERTEX
  5
8F4
  8
0
  6
CONTINUOUS
 62
     7
 10
2.0055519418
 20
3.0342020943
 30
0.0
  0
VERTEX
  5
8F5
  8
0
  6
CONTINUOUS
 62
     7
 10
2.0171235148
 20
2.9557896468
 30
0.0
  0
VERTEX
  5
8F6
  8
0
  6
CONTINUOUS
 62
     7
 10
2.0322367535
 20
2.8769102914
 30
0.0
  0
VERTEX
  5
8F7
  8
0
  6
CONTINUOUS
 62
     7
 10
2.0508699516
 20
2.7976782067
 30
0.0
  0
VERTEX
  5
8F8
  8
0
  6
CONTINUOUS
 62
     7
 10
2.072995536
 20
2.7182073514
 30
0.0
  0
VERTEX
  5
8F9
  8
0
  6
CONTINUOUS
 62
     7
 10
2.0985824138
 20
2.6386124175
 30
0.0
  0
VERTEX
  5
8FA
  8
0
  6
CONTINUOUS
 62
     7
 10
2.1275930386
 20
2.5590082438
 30
0.0
  0
VERTEX
  5
8FB
  8
0
  6
CONTINUOUS
 62
     7
 10
2.1599860511
 20
2.4795096688
 30
0.0
  0
VERTEX
  5
8FC
  8
0
  6
CONTINUOUS
 62
     7
 10
2.195714225
 20
2.400231238
 30
0.0
  0
SEQEND
  5
8EF
  8
0
  6
CONTINUOUS
 62
     7
  0
ARC
  5
1FD
  8
0
  6
CONTINUOUS
 62
     7
 10
4.1545384876
 20
3.2566469454
 30
0.0
 40
1.794787309047106
 50
190.0838517324
 51
202.388329827
  0
LINE
  5
1FE
  8
0
  6
CONTINUOUS
 62
     7
 10
2.464627039
 20
2.5554881281
 30
0.0
 11
2.4950358547
 21
2.573044666
 31
0.0
  0
ARC
  5
1FF
  8
0
  6
CONTINUOUS
 62
     7
 10
3.8380879585
 20
3.635667044
 30
0.0
 40
1.747335463384493
 50
218.1838116789
 51
232.0749337164
  0
ARC
  5
200
  8
0
  6
CONTINUOUS
 62
     7
 10
3.9104356846
 20
3.662315329
 30
0.0
 40
1.786020047905955
 50
217.5813429693
 51
229.9464612975
  0
ARC
  5
201
  8
0
  6
CONTINUOUS
 62
     7
 10
3.7385292855
 20
4.0072651046
 30
0.0
 40
1.747347321633534
 50
157.9251193188
 51
171.8161463382
  0
LINE
  5
202
  8
0
  6
CONTINUOUS
 62
     7
 10
2.0089762562
 20
4.256
 30
0.0
 11
1.6984625552
 21
4.256
 31
0.0
  0
POLYLINE
  5
203
  8
0
  6
CONTINUOUS
 62
     7
 66
     1
 10
0.0
 20
0.0
 30
0.0
  0
VERTEX
  5
8FE
  8
0
  6
CONTINUOUS
 62
     7
 10
1.9949366244
 20
5.1710635158
 30
0.0
  0
VERTEX
  5
8FF
  8
0
  6
CONTINUOUS
 62
     7
 10
1.9548780205
 20
5.1070994747
 30
0.0
  0
VERTEX
  5
900
  8
0
  6
CONTINUOUS
 62
     7
 10
1.9174605594
 20
5.0405555967
 30
0.0
  0
VERTEX
  5
901
  8
0
  6
CONTINUOUS
 62
     7
 10
1.8827388006
 20
4.9715279475
 30
0.0
  0
VERTEX
  5
902
  8
0
  6
CONTINUOUS
 62
     7
 10
1.8507623166
 20
4.9001161124
 30
0.0
  0
VERTEX
  5
903
  8
0
  6
CONTINUOUS
 62
     7
 10
1.8215777471
 20
4.8264229771
 30
0.0
  0
VERTEX
  5
904
  8
0
  6
CONTINUOUS
 62
     7
 10
1.7952264515
 20
4.7505549102
 30
0.0
  0
VERTEX
  5
905
  8
0
  6
CONTINUOUS
 62
     7
 10
1.7717471494
 20
4.6726213238
 30
0.0
  0
VERTEX
  5
906
  8
0
  6
CONTINUOUS
 62
     7
 10
1.7511729871
 20
4.5927346367
 30
0.0
  0
VERTEX
  5
907
  8
0
  6
CONTINUOUS
 62
     7
 10
1.7335344708
 20
4.5110100541
 30
0.0
  0
VERTEX
  5
908
  8
0
  6
CONTINUOUS
 62
     7
 10
1.7188562404
 20
4.4275654764
 30
0.0
  0
VERTEX
  5
909
  8
0
  6
CONTINUOUS
 62
     7
 10
1.7071600022
 20
4.342521233
 30
0.0
  0
VERTEX
  5
90A
  8
0
  6
CONTINUOUS
 62
     7
 10
1.698462476
 20
4.256
 30
0.0
  0
SEQEND
  5
8FD
  8
0
  6
CONTINUOUS
 62
     7
  0
POLYLINE
  5
204
  8
0
  6
CONTINUOUS
 62
     7
 66
     1
 10
0.0
 20
0.0
 30
0.0
  0
VERTEX
  5
90C
  8
0
  6
CONTINUOUS
 62
     7
 10
2.195714225
 20
2.400231238
 30
0.0
  0
VERTEX
  5
90D
  8
0
  6
CONTINUOUS
 62
     7
 10
2.2465072383
 20
2.32965048
 30
0.0
  0
VERTEX
  5
90E
  8
0
  6
CONTINUOUS
 62
     7
 10
2.2991584967
 20
2.2618481433
 30
0.0
  0
VERTEX
  5
90F
  8
0
  6
CONTINUOUS
 62
     7
 10
2.3535923212
 20
2.1969220533
 30
0.0
  0
VERTEX
  5
910
  8
0
  6
CONTINUOUS
 62
     7
 10
2.4097303927
 20
2.1349657824
 30
0.0
  0
VERTEX
  5
911
  8
0
  6
CONTINUOUS
 62
     7
 10
2.4674911654
 20
2.0760687961
 30
0.0
  0
VERTEX
  5
912
  8
0
  6
CONTINUOUS
 62
     7
 10
2.5267916271
 20
2.0203161601
 30
0.0
  0
VERTEX
  5
913
  8
0
  6
CONTINUOUS
 62
     7
 10
2.5875464186
 20
1.9677881003
 30
0.0
  0
VERTEX
  5
914
  8
0
  6
CONTINUOUS
 62
     7
 10
2.6496678343
 20
1.9185602956
 30
0.0
  0
VERTEX
  5
915
  8
0
  6
CONTINUOUS
 62
     7
 10
2.7130661152
 20
1.8727040254
 30
0.0
  0
VERTEX
  5
916
  8
0
  6
CONTINUOUS
 62
     7
 10
2.7776500358
 20
1.8302852887
 30
0.0
  0
VERTEX
  5
917
  8
0
  6
CONTINUOUS
 62
     7
 10
2.8433263171
 20
1.791365245
 30
0.0
  0
VERTEX
  5
918
  8
0
  6
CONTINUOUS
 62
     7
 10
2.9099999202
 20
1.7559999202
 30
0.0
  0
SEQEND
  5
90B
  8
0
  6
CONTINUOUS
 62
     7
  0
ARC
  5
205
  8
0
  6
CONTINUOUS
 62
     7
 10
4.789667044
 20
2.6840879585
 30
0.0
 40
1.74733546338451
 50
217.9250662836
 51
231.8161883211
  0
ARC
  5
206
  8
0
  6
CONTINUOUS
 62
     7
 10
4.8223899083
 20
2.7627781913
 30
0.0
 40
1.794751467134369
 50
220.0837331177
 51
232.3884626155
  0
POLYLINE
  5
207
  8
0
  6
CONTINUOUS
 62
     7
 66
     1
 10
0.0
 20
0.0
 30
0.0
  0
VERTEX
  5
91A
  8
0
  6
CONTINUOUS
 62
     7
 10
2.9099999202
 20
1.7559999202
 30
0.0
  0
VERTEX
  5
91B
  8
0
  6
CONTINUOUS
 62
     7
 10
2.945365245
 20
1.6893263171
 30
0.0
  0
VERTEX
  5
91C
  8
0
  6
CONTINUOUS
 62
     7
 10
2.9842852887
 20
1.6236500358
 30
0.0
  0
VERTEX
  5
91D
  8
0
  6
CONTINUOUS
 62
     7
 10
3.0267040254
 20
1.5590661152
 30
0.0
  0
VERTEX
  5
91E
  8
0
  6
CONTINUOUS
 62
     7
 10
3.0725602956
 20
1.4956678343
 30
0.0
  0
VERTEX
  5
91F
  8
0
  6
CONTINUOUS
 62
     7
 10
3.1217881003
 20
1.4335464186
 30
0.0
  0
VERTEX
  5
920
  8
0
  6
CONTINUOUS
 62
     7
 10
3.1743161601
 20
1.3727916271
 30
0.0
  0
VERTEX
  5
921
  8
0
  6
CONTINUOUS
 62
     7
 10
3.2300687961
 20
1.3134911654
 30
0.0
  0
VERTEX
  5
922
  8
0
  6
CONTINUOUS
 62
     7
 10
3.2889657824
 20
1.2557303927
 30
0.0
  0
VERTEX
  5
923
  8
0
  6
CONTINUOUS
 62
     7
 10
3.3509220533
 20
1.1995923212
 30
0.0
  0
VERTEX
  5
924
  8
0
  6
CONTINUOUS
 62
     7
 10
3.4158481433
 20
1.1451584967
 30
0.0
  0
VERTEX
  5
925
  8
0
  6
CONTINUOUS
 62
     7
 10
3.48365048
 20
1.0925072383
 30
0.0
  0
VERTEX
  5
926
  8
0
  6
CONTINUOUS
 62
     7
 10
3.554231238
 20
1.041714225
 30
0.0
  0
SEQEND
  5
919
  8
0
  6
CONTINUOUS
 62
     7
  0
ARC
  5
208
  8
0
  6
CONTINUOUS
 62
     7
 10
3.8230475089
 20
4.0182705751
 30
0.0
 40
1.794772258049384
 50
160.0838444641
 51
172.3884272072
  0
LINE
  5
209
  8
0
  6
CONTINUOUS
 62
     7
 10
2.0440893321
 20
4.256
 30
0.0
 11
2.0089762562
 21
4.256
 31
0.0
  0
POLYLINE
  5
20A
  8
0
  6
CONTINUOUS
 62
     7
 66
     1
 10
0.0
 20
0.0
 30
0.0
  0
VERTEX
  5
928
  8
0
  6
CONTINUOUS
 62
     7
 10
2.195714225
 20
6.111768762
 30
0.0
  0
VERTEX
  5
929
  8
0
  6
CONTINUOUS
 62
     7
 10
2.1599860511
 20
6.0324903312
 30
0.0
  0
VERTEX
  5
92A
  8
0
  6
CONTINUOUS
 62
     7
 10
2.1275930386
 20
5.9529917562
 30
0.0
  0
VERTEX
  5
92B
  8
0
  6
CONTINUOUS
 62
     7
 10
2.0985824138
 20
5.8733875825
 30
0.0
  0
VERTEX
  5
92C
  8
0
  6
CONTINUOUS
 62
     7
 10
2.072995536
 20
5.7937926486
 30
0.0
  0
VERTEX
  5
92D
  8
0
  6
CONTINUOUS
 62
     7
 10
2.0508699516
 20
5.7143217933
 30
0.0
  0
VERTEX
  5
92E
  8
0
  6
CONTINUOUS
 62
     7
 10
2.0322367535
 20
5.6350897086
 30
0.0
  0
VERTEX
  5
92F
  8
0
  6
CONTINUOUS
 62
     7
 10
2.0171235148
 20
5.5562103532
 30
0.0
  0
VERTEX
  5
930
  8
0
  6
CONTINUOUS
 62
     7
 10
2.0055519418
 20
5.4777979057
 30
0.0
  0
VERTEX
  5
931
  8
0
  6
CONTINUOUS
 62
     7
 10
1.9975381677
 20
5.3999652248
 30
0.0
  0
VERTEX
  5
932
  8
0
  6
CONTINUOUS
 62
     7
 10
1.9930945124
 20
5.3228245826
 30
0.0
  0
VERTEX
  5
933
  8
0
  6
CONTINUOUS
 62
     7
 10
1.9922268424
 20
5.2464872978
 30
0.0
  0
VERTEX
  5
934
  8
0
  6
CONTINUOUS
 62
     7
 10
1.9949366244
 20
5.1710635158
 30
0.0
  0
SEQEND
  5
927
  8
0
  6
CONTINUOUS
 62
     7
  0
ARC
  5
20B
  8
0
  6
CONTINUOUS
 62
     7
 10
4.0868145539
 20
5.3071503876
 30
0.0
 40
1.747330102379562
 50
158.1837792386
 51
172.0749434199
  0
ARC
  5
20C
  8
0
  6
CONTINUOUS
 62
     7
 10
4.1461020074
 20
5.2578098424
 30
0.0
 40
1.786051241961601
 50
157.5814608341
 51
169.9463576065
  0
POLYLINE
  5
20D
  8
0
  6
CONTINUOUS
 62
     7
 66
     1
 10
0.0
 20
0.0
 30
0.0
  0
VERTEX
  5
936
  8
0
  6
CONTINUOUS
 62
     7
 10
1.698462476
 20
4.256
 30
0.0
  0
VERTEX
  5
937
  8
0
  6
CONTINUOUS
 62
     7
 10
1.7071600022
 20
4.169478767
 30
0.0
  0
VERTEX
  5
938
  8
0
  6
CONTINUOUS
 62
     7
 10
1.7188562404
 20
4.0844345236
 30
0.0
  0
VERTEX
  5
939
  8
0
  6
CONTINUOUS
 62
     7
 10
1.7335344708
 20
4.0009899459
 30
0.0
  0
VERTEX
  5
93A
  8
0
  6
CONTINUOUS
 62
     7
 10
1.7511729871
 20
3.9192653633
 30
0.0
  0
VERTEX
  5
93B
  8
0
  6
CONTINUOUS
 62
     7
 10
1.7717471494
 20
3.8393786762
 30
0.0
  0
VERTEX
  5
93C
  8
0
  6
CONTINUOUS
 62
     7
 10
1.7952264515
 20
3.7614450898
 30
0.0
  0
VERTEX
  5
93D
  8
0
  6
CONTINUOUS
 62
     7
 10
1.8215777471
 20
3.6855770229
 30
0.0
  0
VERTEX
  5
93E
  8
0
  6
CONTINUOUS
 62
     7
 10
1.8507623166
 20
3.6118838876
 30
0.0
  0
VERTEX
  5
93F
  8
0
  6
CONTINUOUS
 62
     7
 10
1.8827388006
 20
3.5404720525
 30
0.0
  0
VERTEX
  5
940
  8
0
  6
CONTINUOUS
 62
     7
 10
1.9174605594
 20
3.4714444033
 30
0.0
  0
VERTEX
  5
941
  8
0
  6
CONTINUOUS
 62
     7
 10
1.9548780205
 20
3.4049005253
 30
0.0
  0
VERTEX
  5
942
  8
0
  6
CONTINUOUS
 62
     7
 10
1.9949366244
 20
3.3409364842
 30
0.0
  0
SEQEND
  5
935
  8
0
  6
CONTINUOUS
 62
     7
  0
ARC
  5
20E
  8
0
  6
CONTINUOUS
 62
     7
 10
3.7385292855
 20
4.5047348954
 30
0.0
 40
1.747347321632828
 50
188.1838536618
 51
202.0748806812
  0
ARC
  5
20F
  8
0
  6
CONTINUOUS
 62
     7
 10
3.814517485
 20
4.4916399536
 30
0.0
 40
1.786040877570784
 50
187.5813792267
 51
199.946349102
  0
LINE
  5
210
  8
0
  6
CONTINUOUS
 62
     7
 10
4.4400115472
 20
7.8760461887
 30
0.0
 11
4.4949364905
 21
7.6710635095
 31
0.0
  0
ARC
  5
211
  8
0
  6
CONTINUOUS
 62
     7
 10
5.1983676026
 20
5.0236188789
 30
0.0
 40
2.951515756450333
 50
85.8881948866
 51
104.8884410151
  0
LINE
  5
212
  8
0
  6
CONTINUOUS
 62
     7
 10
4.4400115472
 20
0.6359538113
 30
0.0
 11
4.4949364905
 21
0.8409364905
 31
0.0
  0
ARC
  5
213
  8
0
  6
CONTINUOUS
 62
     7
 10
5.2094681547
 20
3.4854031642
 30
0.0
 40
2.951512304172619
 50
235.8881832147
 51
254.8884516749
  0
LINE
  5
214
  8
0
  6
CONTINUOUS
 62
     7
 10
6.3799884528
 20
0.6359538113
 30
0.0
 11
6.3250635095
 21
0.8409364905
 31
0.0
  0
ARC
  5
215
  8
0
  6
CONTINUOUS
 62
     7
 10
5.6216323974
 20
3.4883811211
 30
0.0
 40
2.951515756450354
 50
265.8881948866
 51
284.8884410151
  0
LINE
  5
216
  8
0
  6
CONTINUOUS
 62
     7
 10
9.0300461887
 20
5.2259884528
 30
0.0
 11
8.8250635095
 21
5.1710635095
 31
0.0
  0
ARC
  5
217
  8
0
  6
CONTINUOUS
 62
     7
 10
6.1776188789
 20
4.4676323974
 30
0.0
 40
2.951515756450358
 50
355.8881948866
 51
14.8884410151
  0
LINE
  5
218
  8
0
  6
CONTINUOUS
 62
     7
 10
9.0300461887
 20
3.2860115472
 30
0.0
 11
8.8250635095
 21
3.3409364905
 31
0.0
  0
ARC
  5
219
  8
0
  6
CONTINUOUS
 62
     7
 10
6.1805968358
 20
4.0554681547
 30
0.0
 40
2.951512304172673
 50
325.8881832147
 51
344.8884516749
  0
LINE
  5
21A
  8
0
  6
CONTINUOUS
 62
     7
 10
1.9949364905
 20
5.1710635095
 30
0.0
 11
1.7899538113
 21
5.2259884528
 31
0.0
  0
ARC
  5
21B
  8
0
  6
CONTINUOUS
 62
     7
 10
4.6394031642
 20
4.4565318453
 30
0.0
 40
2.951512304172631
 50
145.8881832147
 51
164.8884516749
  0
LINE
  5
21C
  8
0
  6
CONTINUOUS
 62
     7
 10
6.3799884528
 20
7.8760461887
 30
0.0
 11
6.3250635095
 21
7.6710635095
 31
0.0
  0
ARC
  5
21D
  8
0
  6
CONTINUOUS
 62
     7
 10
5.6105318453
 20
5.0265968358
 30
0.0
 40
2.951512304172616
 50
55.8881832147
 51
74.8884516749
  0
LINE
  5
21E
  8
0
  6
CONTINUOUS
 62
     7
 10
8.0600577359
 20
6.9060577359
 30
0.0
 11
7.91
 21
6.756
 31
0.0
  0
ARC
  5
21F
  8
0
  6
CONTINUOUS
 62
     7
 10
5.9689587542
 20
4.8230866978
 30
0.0
 40
2.95151876998835
 50
25.8882047749
 51
44.8884311285
  0
ARC
  5
220
  8
0
  6
CONTINUOUS
 62
     7
 10
6.2066459567
 20
4.4684644893
 30
0.0
 40
2.923256954783786
 50
15.0188593482
 51
34.2045057621
  0
LINE
  5
221
  8
0
  6
CONTINUOUS
 62
     7
 10
2.7599422641
 20
6.9060577359
 30
0.0
 11
2.91
 21
6.756
 31
0.0
  0
ARC
  5
222
  8
0
  6
CONTINUOUS
 62
     7
 10
4.8429133022
 20
4.8149587542
 30
0.0
 40
2.951518769988272
 50
115.8882047749
 51
134.8884311285
  0
ARC
  5
223
  8
0
  6
CONTINUOUS
 62
     7
 10
5.1956764132
 20
3.4598492202
 30
0.0
 40
2.923254088872463
 50
255.0188492992
 51
274.2045147992
  0
ARC
  5
224
  8
0
  6
CONTINUOUS
 62
     7
 10
4.8276835428
 20
4.8396789867
 30
0.0
 40
2.92326442288575
 50
135.0188836292
 51
154.2044804675
  0
ARC
  5
225
  8
0
  6
CONTINUOUS
 62
     7
 10
5.6243235868
 20
5.0521507798
 30
0.0
 40
2.923254088872544
 50
75.0188492992
 51
94.2045147992
  0
LINE
  5
226
  8
0
  6
CONTINUOUS
 62
     7
 10
8.0600577359
 20
1.6059422641
 30
0.0
 11
7.91
 21
1.756
 31
0.0
  0
ARC
  5
227
  8
0
  6
CONTINUOUS
 62
     7
 10
5.9770866978
 20
3.6970412458
 30
0.0
 40
2.95151876998828
 50
295.8882047749
 51
314.8884311285
  0
ARC
  5
228
  8
0
  6
CONTINUOUS
 62
     7
 10
5.6224644893
 20
3.4593540433
 30
0.0
 40
2.923256954783777
 50
285.0188593482
 51
304.2045057621
  0
ARC
  5
229
  8
0
  6
CONTINUOUS
 62
     7
 10
4.8263210133
 20
3.6736835428
 30
0.0
 40
2.923264422885739
 50
225.0188836292
 51
244.2044804675
  0
LINE
  5
22A
  8
0
  6
CONTINUOUS
 62
     7
 10
2.7599422641
 20
1.6059422641
 30
0.0
 11
2.91
 21
1.756
 31
0.0
  0
ARC
  5
22B
  8
0
  6
CONTINUOUS
 62
     7
 10
5.9923164572
 20
3.6723210133
 30
0.0
 40
2.923264422885853
 50
315.0188836292
 51
334.2044804675
  0
ARC
  5
22C
  8
0
  6
CONTINUOUS
 62
     7
 10
6.2061507798
 20
4.0416764132
 30
0.0
 40
2.923254088872539
 50
345.0188492992
 51
4.2045147992
  0
ARC
  5
22D
  8
0
  6
CONTINUOUS
 62
     7
 10
5.9936789867
 20
4.8383164572
 30
0.0
 40
2.923264422885751
 50
45.0188836292
 51
64.2044804675
  0
ARC
  5
22E
  8
0
  6
CONTINUOUS
 62
     7
 10
5.1975355107
 20
5.0526459567
 30
0.0
 40
2.923256954783762
 50
105.0188593482
 51
124.2045057621
  0
LINE
  5
22F
  8
0
  6
CONTINUOUS
 62
     7
 10
1.7899538113
 20
3.2860115472
 30
0.0
 11
1.9949364905
 21
3.3409364905
 31
0.0
  0
ARC
  5
230
  8
0
  6
CONTINUOUS
 62
     7
 10
4.6423811211
 20
4.0443676026
 30
0.0
 40
2.95151575645039
 50
175.8881948866
 51
194.8884410151
  0
ARC
  5
231
  8
0
  6
CONTINUOUS
 62
     7
 10
4.8510412458
 20
3.6889133022
 30
0.0
 40
2.951518769988304
 50
205.8882047749
 51
224.8884311285
  0
ARC
  5
232
  8
0
  6
CONTINUOUS
 62
     7
 10
4.6138492202
 20
4.4703235868
 30
0.0
 40
2.923254088872461
 50
165.0188492992
 51
184.2045147992
  0
ARC
  5
233
  8
0
  6
CONTINUOUS
 62
     7
 10
4.6133540433
 20
4.0435355107
 30
0.0
 40
2.923256954783783
 50
195.0188593482
 51
214.2045057621
  0
ARC
  5
234
  8
0
  6
CONTINUOUS
 62
     7
 10
5.5783260955
 20
4.0439680802
 30
0.0
 40
3.478931089226923
 50
310.5867798382
 51
315.5089871709
  0
LINE
  5
235
  8
0
  6
CONTINUOUS
 62
     7
 10
6.6657847587
 20
0.7230694332
 30
0.0
 11
6.7000780036
 21
0.742868504
 31
0.0
  0
LINE
  5
236
  8
0
  6
CONTINUOUS
 62
     7
 10
7.8074220114
 20
1.3821940251
 30
0.0
 11
7.8417152413
 21
1.4019932139
 31
0.0
  0
ARC
  5
237
  8
0
  6
CONTINUOUS
 62
     7
 10
5.5094469199
 20
4.0042638691
 30
0.0
 40
3.478987635137361
 50
284.4910284433
 51
289.4131553981
  0
ARC
  5
238
  8
0
  6
CONTINUOUS
 62
     7
 10
5.1422824325
 20
4.2162579589
 30
0.0
 40
3.479003496816188
 50
190.5868373344
 51
195.508941345
  0
LINE
  5
239
  8
0
  6
CONTINUOUS
 62
     7
 10
1.7225
 20
3.5770762193
 30
0.0
 11
1.722499985
 21
3.6166745522
 31
0.0
  0
LINE
  5
23A
  8
0
  6
CONTINUOUS
 62
     7
 10
1.722499985
 20
4.8953254478
 30
0.0
 11
1.7225
 21
4.9349237807
 31
0.0
  0
ARC
  5
23B
  8
0
  6
CONTINUOUS
 62
     7
 10
5.1422824325
 20
4.2957420411
 30
0.0
 40
3.479003496816193
 50
164.491058655
 51
169.4131626656
  0
ARC
  5
23C
  8
0
  6
CONTINUOUS
 62
     7
 10
5.6777175675
 20
4.2957420411
 30
0.0
 40
3.479003496816135
 50
10.5868373344
 51
15.508941345
  0
LINE
  5
23D
  8
0
  6
CONTINUOUS
 62
     7
 10
9.0975
 20
3.5770762193
 30
0.0
 11
9.097500015
 21
3.6166745522
 31
0.0
  0
LINE
  5
23E
  8
0
  6
CONTINUOUS
 62
     7
 10
9.097500015
 20
4.8953254478
 30
0.0
 11
9.0975
 21
4.9349237807
 31
0.0
  0
ARC
  5
23F
  8
0
  6
CONTINUOUS
 62
     7
 10
5.6777175675
 20
4.2162579589
 30
0.0
 40
3.479003496816292
 50
344.491058655
 51
349.4131626656
  0
ARC
  5
240
  8
0
  6
CONTINUOUS
 62
     7
 10
5.1979680802
 20
4.0876739045
 30
0.0
 40
3.478931089226402
 50
220.5867798382
 51
225.5089871709
  0
LINE
  5
241
  8
0
  6
CONTINUOUS
 62
     7
 10
1.8770694332
 20
3.0002152413
 30
0.0
 11
1.896868504
 21
2.9659219964
 31
0.0
  0
LINE
  5
242
  8
0
  6
CONTINUOUS
 62
     7
 10
2.5361940251
 20
1.8585779886
 30
0.0
 11
2.5559932139
 21
1.8242847587
 31
0.0
  0
ARC
  5
243
  8
0
  6
CONTINUOUS
 62
     7
 10
5.1582638691
 20
4.1565530801
 30
0.0
 40
3.478987635137575
 50
194.4910284433
 51
199.4131553981
  0
ARC
  5
244
  8
0
  6
CONTINUOUS
 62
     7
 10
5.3702579589
 20
4.5237175675
 30
0.0
 40
3.479003496816493
 50
100.5868373344
 51
105.508941345
  0
LINE
  5
245
  8
0
  6
CONTINUOUS
 62
     7
 10
6.0889237807
 20
7.9435
 30
0.0
 11
6.0493254478
 21
7.943500015
 31
0.0
  0
LINE
  5
246
  8
0
  6
CONTINUOUS
 62
     7
 10
4.7706745522
 20
7.943500015
 30
0.0
 11
4.7310762193
 21
7.9435
 31
0.0
  0
ARC
  5
247
  8
0
  6
CONTINUOUS
 62
     7
 10
5.4497420411
 20
4.5237175675
 30
0.0
 40
3.479003496816505
 50
74.491058655
 51
79.4131626656
  0
ARC
  5
248
  8
0
  6
CONTINUOUS
 62
     7
 10
5.1582638691
 20
4.3554469199
 30
0.0
 40
3.478987635137485
 50
160.5868446019
 51
165.5089715567
  0
LINE
  5
249
  8
0
  6
CONTINUOUS
 62
     7
 10
2.5559932139
 20
6.6877152413
 30
0.0
 11
2.5361940251
 21
6.6534220114
 31
0.0
  0
LINE
  5
24A
  8
0
  6
CONTINUOUS
 62
     7
 10
1.896868504
 20
5.5460780036
 30
0.0
 11
1.8770694332
 21
5.5117847587
 31
0.0
  0
ARC
  5
24B
  8
0
  6
CONTINUOUS
 62
     7
 10
5.1979680802
 20
4.4243260955
 30
0.0
 40
3.478931089226745
 50
134.4910128291
 51
139.4132201618
  0
ARC
  5
24C
  8
0
  6
CONTINUOUS
 62
     7
 10
5.3105530801
 20
4.0042638691
 30
0.0
 40
3.478987635137373
 50
250.5868446019
 51
255.5089715567
  0
LINE
  5
24D
  8
0
  6
CONTINUOUS
 62
     7
 10
2.9782847587
 20
1.4019932139
 30
0.0
 11
3.0125779886
 21
1.3821940251
 31
0.0
  0
LINE
  5
24E
  8
0
  6
CONTINUOUS
 62
     7
 10
4.1199219964
 20
0.742868504
 30
0.0
 11
4.1542152413
 21
0.7230694332
 31
0.0
  0
ARC
  5
24F
  8
0
  6
CONTINUOUS
 62
     7
 10
5.2416739045
 20
4.0439680802
 30
0.0
 40
3.478931089226433
 50
224.4910128291
 51
229.4132201618
  0
ARC
  5
250
  8
0
  6
CONTINUOUS
 62
     7
 10
5.4497420411
 20
3.9882824325
 30
0.0
 40
3.479003496816194
 50
280.5868373344
 51
285.508941345
  0
LINE
  5
251
  8
0
  6
CONTINUOUS
 62
     7
 10
4.7310762193
 20
0.5685
 30
0.0
 11
4.7706745522
 21
0.568499985
 31
0.0
  0
LINE
  5
252
  8
0
  6
CONTINUOUS
 62
     7
 10
6.0493254478
 20
0.568499985
 30
0.0
 11
6.0889237807
 21
0.5685
 31
0.0
  0
ARC
  5
253
  8
0
  6
CONTINUOUS
 62
     7
 10
5.3702579589
 20
3.9882824325
 30
0.0
 40
3.479003496816021
 50
254.491058655
 51
259.4131626656
  0
ARC
  5
254
  8
0
  6
CONTINUOUS
 62
     7
 10
5.5094469199
 20
4.5077361309
 30
0.0
 40
3.478987635137825
 50
70.5868446019
 51
75.5089715567
  0
LINE
  5
255
  8
0
  6
CONTINUOUS
 62
     7
 10
7.8417152413
 20
7.1100067861
 30
0.0
 11
7.8074220114
 21
7.1298059749
 31
0.0
  0
LINE
  5
256
  8
0
  6
CONTINUOUS
 62
     7
 10
6.7000780036
 20
7.769131496
 30
0.0
 11
6.6657847587
 21
7.7889305668
 31
0.0
  0
ARC
  5
257
  8
0
  6
CONTINUOUS
 62
     7
 10
5.5783260955
 20
4.4680319198
 30
0.0
 40
3.478931089227001
 50
44.4910128291
 51
49.4132201618
  0
ARC
  5
258
  8
0
  6
CONTINUOUS
 62
     7
 10
5.6617361309
 20
4.1565530801
 30
0.0
 40
3.478987635137316
 50
340.5868446019
 51
345.5089715567
  0
LINE
  5
259
  8
0
  6
CONTINUOUS
 62
     7
 10
8.2640067861
 20
1.8242847587
 30
0.0
 11
8.2838059749
 21
1.8585779886
 31
0.0
  0
LINE
  5
25A
  8
0
  6
CONTINUOUS
 62
     7
 10
8.923131496
 20
2.9659219964
 30
0.0
 11
8.9429305668
 21
3.0002152413
 31
0.0
  0
ARC
  5
25B
  8
0
  6
CONTINUOUS
 62
     7
 10
5.6220319198
 20
4.0876739045
 30
0.0
 40
3.478931089226488
 50
314.4910128291
 51
319.4132201618
  0
ARC
  5
25C
  8
0
  6
CONTINUOUS
 62
     7
 10
5.2416739045
 20
4.4680319198
 30
0.0
 40
3.478931089226508
 50
130.5867798382
 51
135.5089871709
  0
LINE
  5
25D
  8
0
  6
CONTINUOUS
 62
     7
 10
4.1542152413
 20
7.7889305668
 30
0.0
 11
4.1199219964
 21
7.769131496
 31
0.0
  0
LINE
  5
25E
  8
0
  6
CONTINUOUS
 62
     7
 10
3.0125779886
 20
7.1298059749
 30
0.0
 11
2.9782847587
 21
7.1100067861
 31
0.0
  0
ARC
  5
25F
  8
0
  6
CONTINUOUS
 62
     7
 10
5.3105530801
 20
4.5077361309
 30
0.0
 40
3.478987635137941
 50
104.4910284433
 51
109.4131553981
  0
ARC
  5
260
  8
0
  6
CONTINUOUS
 62
     7
 10
5.6220319198
 20
4.4243260955
 30
0.0
 40
3.478931089226935
 50
40.5867798382
 51
45.5089871709
  0
LINE
  5
261
  8
0
  6
CONTINUOUS
 62
     7
 10
8.9429305668
 20
5.5117847587
 30
0.0
 11
8.923131496
 21
5.5460780036
 31
0.0
  0
LINE
  5
262
  8
0
  6
CONTINUOUS
 62
     7
 10
8.2838059749
 20
6.6534220114
 30
0.0
 11
8.2640067861
 21
6.6877152413
 31
0.0
  0
ARC
  5
263
  8
0
  6
CONTINUOUS
 62
     7
 10
5.6617361309
 20
4.3554469199
 30
0.0
 40
3.478987635137216
 50
14.4910284433
 51
19.4131553981
  0
CIRCLE
  5
264
  8
0
  6
CONTINUOUS
 62
     7
 10
5.41
 20
4.256
 30
0.0
 40
3.75
  0
ENDSEC
  0
EOF
