  0
SECTION
  2
HEADER
  9
$ACADVER
  1
AC1015
  9
$ACADMAINTVER
 70
         6
  9
$DWGCODEPAGE
  3
ANSI_1252
  9
$INSBASE
 10
0.0
 20
0.0
 30
0.0
  9
$EXTMIN
 10
0.0
 20
0.0
 30
0.0
  9
$EXTMAX
 10
48.0
 20
120.0
 30
0.0
  9
$LIMMIN
 10
0.0
 20
0.0
  9
$LIMMAX
 10
0.0
 20
0.0
  9
$ORTHOMODE
 70
         0
  9
$REGENMODE
 70
         1
  9
$FILLMODE
 70
         1
  9
$QTEXTMODE
 70
         0
  9
$MIRRTEXT
 70
         1
  9
$LTSCALE
 40
1.0
  9
$ATTMODE
 70
         1
  9
$TEXTSIZE
 40
0.1377952756
  9
$TRACEWID
 40
0.05
  9
$TEXTSTYLE
  7
Standard
  9
$CLAYER
  8
0
  9
$CELTYPE
  6
Continuous
  9
$CECOLOR
 62
       256
  9
$CELTSCALE
 40
1.0
  9
$DISPSILH
 70
         0
  9
$DIMSCALE
 40
1.0
  9
$DIMASZ
 40
0.0
  9
$DIMEXO
 40
0.0
  9
$DIMDLI
 40
0.38
  9
$DIMRND
 40
0.0
  9
$DIMDLE
 40
0.0
  9
$DIMEXE
 40
0.18
  9
$DIMTP
 40
0.0
  9
$DIMTM
 40
0.0
  9
$DIMTXT
 40
0.1377952756
  9
$DIMCEN
 40
0.09
  9
$DIMTSZ
 40
0.0
  9
$DIMTOL
 70
         0
  9
$DIMLIM
 70
         0
  9
$DIMTIH
 70
         1
  9
$DIMTOH
 70
         1
  9
$DIMSE1
 70
         0
  9
$DIMSE2
 70
         0
  9
$DIMTAD
 70
         1
  9
$DIMZIN
 70
         0
  9
$DIMBLK
  1

  9
$DIMASO
 70
         1
  9
$DIMSHO
 70
         1
  9
$DIMPOST
  1

  9
$DIMAPOST
  1

  9
$DIMALT
 70
         0
  9
$DIMALTD
 70
         2
  9
$DIMALTF
 40
25.4
  9
$DIMLFAC
 40
1.0
  9
$DIMTOFL
 70
         0
  9
$DIMTVP
 40
0.0
  9
$DIMTIX
 70
         0
  9
$DIMSOXD
 70
         0
  9
$DIMSAH
 70
         0
  9
$DIMBLK1
  1

  9
$DIMBLK2
  1

  9
$DIMSTYLE
  2
Standard
  9
$DIMCLRD
 70
         0
  9
$DIMCLRE
 70
         0
  9
$DIMCLRT
 70
         0
  9
$DIMTFAC
 40
1.0
  9
$DIMGAP
 40
0.0
  9
$DIMJUST
 70
         0
  9
$DIMSD1
 70
         0
  9
$DIMSD2
 70
         0
  9
$DIMTOLJ
 70
         1
  9
$DIMTZIN
 70
         0
  9
$DIMALTZ
 70
         0
  9
$DIMALTTZ
 70
         0
  9
$DIMUPT
 70
         0
  9
$DIMDEC
 70
         4
  9
$DIMTDEC
 70
         4
  9
$DIMALTU
 70
         2
  9
$DIMALTTD
 70
         2
  9
$DIMTXSTY
  7
Standard
  9
$DIMAUNIT
 70
         0
  9
$DIMADEC
 70
         0
  9
$DIMALTRND
 40
0.0
  9
$DIMAZIN
 70
         0
  9
$DIMDSEP
 70
         0
  9
$DIMATFIT
 70
         3
  9
$DIMFRAC
 70
         0
  9
$DIMLDRBLK
  1

  9
$DIMLUNIT
 70
         2
  9
$DIMLWD
 70
         0
  9
$DIMLWE
 70
         0
  9
$DIMTMOVE
 70
         0
  9
$LUNITS
 70
         2
  9
$LUPREC
 70
         2
  9
$SKETCHINC
 40
0.1
  9
$FILLETRAD
 40
0.0
  9
$AUNITS
 70
         0
  9
$AUPREC
 70
         2
  9
$MENU
  1
acad
  9
$ELEVATION
 40
0.0
  9
$PELEVATION
 40
0.0
  9
$THICKNESS
 40
0.0
  9
$LIMCHECK
 70
         0
  9
$CHAMFERA
 40
0.0
  9
$CHAMFERB
 40
0.0
  9
$CHAMFERC
 40
0.0
  9
$CHAMFERD
 40
0.0
  9
$SKPOLY
 70
         0
  9
$TDCREATE
 40
0.000000000
  9
$TDUCREATE
 40
0.000000000
  9
$TDUPDATE
 40
0.000000000
  9
$TDUUPDATE
 40
0.000000000
  9
$TDINDWG
 40
0.0000000000
  9
$TDUSRTIMER
 40
0.0000000000
  9
$USRTIMER
 70
         1
  9
$ANGBASE
 50
0.0
  9
$ANGDIR
 70
         0
  9
$PDMODE
 70
         0
  9
$PDSIZE
 40
-1.0
  9
$PLINEWID
 40
0.0
  9
$SPLFRAME
 70
         0
  9
$SPLINETYPE
 70
         6
  9
$SPLINESEGS
 70
         8
  9
$HANDSEED
  5
3D1
  9
$SURFTAB1
 70
         6
  9
$SURFTAB2
 70
         6
  9
$SURFTYPE
 70
         6
  9
$SURFU
 70
         6
  9
$SURFV
 70
         6
  9
$UCSBASE
  2

  9
$UCSNAME
  2

  9
$UCSORG
 10
0.0
 20
0.0
 30
0.0
  9
$UCSXDIR
 10
1.0
 20
0.0
 30
0.0
  9
$UCSYDIR
 10
0.0
 20
1.0
 30
0.0
  9
$UCSORTHOREF
  2

  9
$UCSORTHOVIEW
 70
         0
  9
$UCSORGTOP
 10
0.0
 20
0.0
 30
0.0
  9
$UCSORGBOTTOM
 10
0.0
 20
0.0
 30
0.0
  9
$UCSORGLEFT
 10
0.0
 20
0.0
 30
0.0
  9
$UCSORGRIGHT
 10
0.0
 20
0.0
 30
0.0
  9
$UCSORGFRONT
 10
0.0
 20
0.0
 30
0.0
  9
$UCSORGBACK
 10
0.0
 20
0.0
 30
0.0
  9
$PUCSBASE
  2

  9
$PUCSNAME
  2

  9
$PUCSORG
 10
0.0
 20
0.0
 30
0.0
  9
$PUCSXDIR
 10
1.0
 20
0.0
 30
0.0
  9
$PUCSYDIR
 10
0.0
 20
1.0
 30
0.0
  9
$PUCSORTHOREF
  2

  9
$PUCSORTHOVIEW
 70
         0
  9
$PUCSORGTOP
 10
0.0
 20
0.0
 30
0.0
  9
$PUCSORGBOTTOM
 10
0.0
 20
0.0
 30
0.0
  9
$PUCSORGLEFT
 10
0.0
 20
0.0
 30
0.0
  9
$PUCSORGRIGHT
 10
0.0
 20
0.0
 30
0.0
  9
$PUCSORGFRONT
 10
0.0
 20
0.0
 30
0.0
  9
$PUCSORGBACK
 10
0.0
 20
0.0
 30
0.0
  9
$USERI1
 70
         0
  9
$USERI2
 70
         0
  9
$USERI3
 70
         0
  9
$USERI4
 70
         0
  9
$USERI5
 70
         0
  9
$USERR1
 40
0.0
  9
$USERR2
 40
0.0
  9
$USERR3
 40
0.0
  9
$USERR4
 40
0.0
  9
$USERR5
 40
0.0
  9
$WORLDVIEW
 70
         1
  9
$SHADEDGE
 70
         3
  9
$SHADEDIF
 70
        70
  9
$TILEMODE
 70
         1
  9
$MAXACTVP
 70
        16
  9
$PINSBASE
 10
0.0
 20
0.0
 30
0.0
  9
$PLIMCHECK
 70
         0
  9
$PEXTMIN
 10
1.0000000000E+20
 20
1.0000000000E+20
 30
1.0000000000E+20
  9
$PEXTMAX
 10
-1.0000000000E+20
 20
-1.0000000000E+20
 30
-1.0000000000E+20
  9
$PLIMMIN
 10
0.0
 20
0.0
  9
$PLIMMAX
 10
12.0
 20
9.0
  9
$UNITMODE
 70
         0
  9
$VISRETAIN
 70
         0
  9
$PLINEGEN
 70
         1
  9
$PSLTSCALE
 70
         1
  9
$TREEDEPTH
 70
      3020
  9
$CMLSTYLE
  2
Standard
  9
$CMLJUST
 70
         0
  9
$CMLSCALE
 40
1.0
  9
$PROXYGRAPHICS
 70
         0
  9
$MEASUREMENT
 70
         0
  9
$CELWEIGHT
370
         0
  9
$ENDCAPS
280
         0
  9
$JOINSTYLE
280
         0
  9
$LWDISPLAY
290
         1
  9
$INSUNITS
 70
         0
  9
$HYPERLINKBASE
  1

  9
$STYLESHEET
  1

  9
$XEDIT
290
         1
  9
$CEPSNTYPE
380
         0
  9
$PSTYLEMODE
290
         1
  9
$FINGERPRINTGUID
  2

  9
$VERSIONGUID
  2

  9
$EXTNAMES
290
         1
  9
$PSVPSCALE
 40
0.0
  0
ENDSEC
  0
SECTION
  2
CLASSES
  0
CLASS
  1
LWPOLYLINE
  2
AcDbPolyline
  3
AutoCAD 2000
 90
        0
280
         0
281
         1
  0
CLASS
  1
IMAGE
  2
AcDbRasterImage
  3
ISM
 90
      127
280
         0
281
         1
  0
CLASS
  1
OLE2FRAME
  2
AcDbOle2Frame
  3
AutoCAD 2000
 90
        0
280
         0
281
         1
  0
CLASS
  1
HATCH
  2
AcDbHatch
  3
AutoCAD 2000
 90
        0
280
         0
281
         1
  0
CLASS
  1
DICTIONARYVAR
  2
AcDbDictionaryVar
  3
AutoCAD 2000
 90
        0
280
         0
281
         0
  0
CLASS
  1
RASTERVARIABLES
  2
AcDbRasterVariables
  3
ISM
 90
        0
280
         0
281
         0
  0
CLASS
  1
IMAGEDEF
  2
AcDbRasterImageDef
  3
ISM
 90
        0
280
         0
281
         0
  0
CLASS
  1
IMAGEDEF_REACTOR
  2
AcDbRasterImageDefReactor
  3
ISM
 90
        1
280
         0
281
         0
  0
CLASS
  1
IDBUFFER
  2
AcDbIdBuffer
  3
AutoCAD 2000
 90
        0
280
         0
281
         0
  0
CLASS
  1
SPATIAL_FILTER
  2
AcDbSpatialFilter
  3
AutoCAD 2000
 90
        0
280
         0
281
         0
  0
CLASS
  1
XRECORD
  2
AcDbXrecord
  3
AutoCAD 2000
 90
        0
280
         0
281
         0
  0
CLASS
  1
SORTENTSTABLE
  2
AcDbSortentsTable
  3
AutoCAD 2000
 90
        0
280
         0
281
         0
  0
CLASS
  1
LAYER_INDEX
  2
AcDbLayerIndex
  3
AutoCAD 2000
 90
        0
280
         0
281
         0
  0
CLASS
  1
SPATIAL_INDEX
  2
AcDbSpatialIndex
  3
AutoCAD 2000
 90
        0
280
         0
281
         0
  0
CLASS
  1
OBJECT_PTR
  2
CAseDLPNTableRecord
  3
"ASE-LPNTableRecord"
 90
        1
280
         0
281
         0
  0
CLASS
  1
LAYOUT
  2
AcDbLayout
  3
AutoCAD 2000
 90
        0
280
         0
281
         0
  0
CLASS
  1
PLOTSETTINGS
  2
AcDbPlotSettings
  3
AutoCAD 2000
 90
        0
280
         0
281
         0
  0
CLASS
  1
ACDBDICTIONARYWDFLT
  2
AcDbDictionaryWithDefault
  3
AutoCAD 2000
 90
        0
280
         0
281
         0
  0
CLASS
  1
ACDBPLACEHOLDER
  2
AcDbPlaceHolder
  3
AutoCAD 2000
 90
        0
280
         0
281
         0
  0
CLASS
  1
VBA_PROJECT
  2
AcDbVbaProject
  3
acadvba
 90
        0
280
         0
281
         0
  0
CLASS
  1
WIPEOUT
  2
AcDbWipeout
  3
WipeOut|AutoCAD Express Tool|expresstools@autodesk.com
 90
      127
280
         0
281
         1
  0
CLASS
  1
WIPEOUTVARIABLES
  2
AcDbWipeoutVariables
  3
WipeOut|AutoCAD Express Tool|expresstools@autodesk.com
 90
        0
280
         0
281
         0
  0
CLASS
  1
RTEXT
  2
RText
  3
RText|AutoCAD Express Tool|expresstools@autodesk.com
 90
        0
280
         0
281
         1
  0
CLASS
  1
ARCALIGNEDTEXT
  2
AcDbArcAlignedText
  3
ATEXT|AutoCAD Express Tool|expresstools@autodesk.com
 90
        0
280
         0
281
         1
  0
ENDSEC
  0
SECTION
  2
TABLES
  0
TABLE
  2
VPORT
  5
7
100
AcDbSymbolTable
 70
         1
  0
VPORT
  5
15
100
AcDbSymbolTableRecord
100
AcDbViewportTableRecord
  2
*ACTIVE
 70
         0
 10
0.0
 20
0.0
 11
1.0
 21
1.0
 12
24.0
 22
60.0
 13
0.0
 23
0.0
 14
1.0
 24
1.0
 15
0.0
 25
0.0
 16
0.0
 26
0.0
 36
1.0
 17
0.0
 27
0.0
 37
0.0
 40
120.0
 41
2.5
 42
50.0
 43
0.0
 44
0.0
 50
0.0
 51
0.0
 71
         0
 72
      2000
 73
         1
 74
         1
 75
         0
 76
         0
 77
         0
 78
         0
281
         0
 65
         0
110
0.0
120
0.0
130
0.0
111
1.0
121
0.0
131
0.0
112
0.0
122
1.0
132
0.0
345
0
346
0
 79
         0
146
0.0
  0
ENDTAB
  0
TABLE
  2
LTYPE
  5
4
100
AcDbSymbolTable
 70
         8
  0
LTYPE
  5
11
100
AcDbSymbolTableRecord
100
AcDbLinetypeTableRecord
  2
ByBlock
 70
        64
  3

 72
        65
 73
         0
 40
0.0
  0
LTYPE
  5
12
100
AcDbSymbolTableRecord
100
AcDbLinetypeTableRecord
  2
ByLayer
 70
        64
  3

 72
        65
 73
         0
 40
0.0
  0
LTYPE
  5
13
100
AcDbSymbolTableRecord
100
AcDbLinetypeTableRecord
  2
Continuous
 70
        64
  3
Solid line
 72
        65
 73
         0
 40
0.0
  0
LTYPE
  5
24
100
AcDbSymbolTableRecord
100
AcDbLinetypeTableRecord
  2
HIDDEN
 70
        64
  3
Hidden __ __ __ __ __ __ __ __ __ __ __ __ __ __
 72
        65
 73
         2
 40
0.075
 49
0.05
 74
         0
 49
-0.025
 74
         0
  0
LTYPE
  5
25
100
AcDbSymbolTableRecord
100
AcDbLinetypeTableRecord
  2
PHANTOM
 70
        64
  3
Phantom ______  __  __  ______  __  __  ______
 72
        65
 73
         6
 40
0.5
 49
0.25
 74
         0
 49
-0.05
 74
         0
 49
0.05
 74
         0
 49
-0.05
 74
         0
 49
0.05
 74
         0
 49
-0.05
 74
         0
  0
LTYPE
  5
26
100
AcDbSymbolTableRecord
100
AcDbLinetypeTableRecord
  2
CENTER
 70
        64
  3
Center ____ _ ____ _ ____ _ ____ _ ____ _ ____
 72
        65
 73
         4
 40
0.4
 49
0.25
 74
         0
 49
-0.05
 74
         0
 49
0.05
 74
         0
 49
-0.05
 74
         0
  0
LTYPE
  5
27
100
AcDbSymbolTableRecord
100
AcDbLinetypeTableRecord
  2
CENTERX2
 70
        64
  3
Center (2x) ________  __  ________  __  _____
 72
        65
 73
         4
 40
0.8
 49
0.5
 74
         0
 49
-0.1
 74
         0
 49
0.1
 74
         0
 49
-0.1
 74
         0
  0
LTYPE
  5
28
100
AcDbSymbolTableRecord
100
AcDbLinetypeTableRecord
  2
DOT2
 70
        64
  3
Dot (.5x) ........................................
 72
        65
 73
         2
 40
0.025
 49
0.0
 74
         0
 49
-0.025
 74
         0
  0
ENDTAB
  0
TABLE
  2
LAYER
  5
2
100
AcDbSymbolTable
 70
         1
  0
LAYER
  5
14
100
AcDbSymbolTableRecord
100
AcDbLayerTableRecord
  2
0
 70
         0
 62
         7
  6
Continuous
290
         1
370
        -3
390
1D
  0
ENDTAB
  0
TABLE
  2
STYLE
  5
3
100
AcDbSymbolTable
 70
         1
  0
STYLE
  5
17
100
AcDbSymbolTableRecord
100
AcDbTextStyleTableRecord
  2
Standard
 70
         0
 40
0.0
 41
1.0
 50
0.0
 71
         0
 42
0.0
  3
txt
  4

  0
ENDTAB
  0
TABLE
  2
VIEW
  5
5
100
AcDbSymbolTable
 70
         0
  0
ENDTAB
  0
TABLE
  2
UCS
  5
6
100
AcDbSymbolTable
 70
         0
  0
ENDTAB
  0
TABLE
  2
APPID
  5
8
100
AcDbSymbolTable
 70
         1
  0
APPID
  5
16
100
AcDbSymbolTableRecord
100
AcDbRegAppTableRecord
  2
ACAD
 70
         0
  0
ENDTAB
  0
TABLE
  2
DIMSTYLE
  5
9
100
AcDbSymbolTable
 70
         1
100
AcDbDimStyleTable
 71
         0
  0
DIMSTYLE
105
18
100
AcDbSymbolTableRecord
100
AcDbDimStyleTableRecord
  2
Standard
 70
         0
  3

  4

 40
1.0
 41
0.18
 42
0.0625
 43
0.38
 44
0.18
 45
0.0
 46
0.0
 47
0.0
 48
0.0
 71
         0
 72
         0
 73
         1
 74
         1
 75
         0
 76
         0
 77
         0
 78
         0
 79
         0
140
0.18
141
0.09
142
0.0
143
25.4
144
1.0
145
0.0
146
1.0
147
0.09
148
0.0
170
         0
171
         2
172
         0
173
         0
174
         0
175
         0
176
         0
177
         0
178
         0
179
         0
271
         4
272
         4
273
         2
274
         2
275
         0
276
         0
277
         2
278
        46
279
         0
280
         0
281
         0
282
         0
283
         1
284
         0
285
         0
286
         0
288
         0
289
         3
340
17
341
0
342
0
343
0
344
0
371
        -2
372
        -2
  0
ENDTAB
  0
TABLE
  2
BLOCK_RECORD
  5
1
100
AcDbSymbolTable
 70
         0
  0
BLOCK_RECORD
  5
A
100
AcDbSymbolTableRecord
100
AcDbBlockTableRecord
  2
*MODEL_SPACE
340
20
  0
BLOCK_RECORD
  5
B
100
AcDbSymbolTableRecord
100
AcDbBlockTableRecord
  2
*PAPER_SPACE
340
21
  0
ENDTAB
  0
ENDSEC
  0
SECTION
  2
BLOCKS
  0
BLOCK
  5
D
100
AcDbEntity
  8
0
390
0
100
AcDbBlockBegin
  2
*MODEL_SPACE
 70
         0
 10
0.0
 20
0.0
 30
0.0
  3
*MODEL_SPACE
  1

  0
ENDBLK
  5
E
100
AcDbEntity
  8
0
390
0
100
AcDbBlockEnd
  0
BLOCK
  5
F
100
AcDbEntity
 67
         1
  8
0
390
0
100
AcDbBlockBegin
  2
*PAPER_SPACE
 70
         0
 10
0.0
 20
0.0
 30
0.0
  3
*PAPER_SPACE
  1

  0
ENDBLK
  5
10
100
AcDbEntity
 67
         1
  8
0
390
0
100
AcDbBlockEnd
  0
ENDSEC
  0
SECTION
  2
ENTITIES
  0
LINE
  5
2A
100
AcDbEntity
  8
0
370
        15
390
0
  6
Continuous
 62
         7
100
AcDbLine
 10
37.8925219268
 20
23.3767870913
 30
0.0
 11
39.6425219268
 21
23.3767870913
 31
0.0
  0
LINE
  5
2B
100
AcDbEntity
  8
0
370
        15
390
0
  6
Continuous
 62
         7
100
AcDbLine
 10
36.1425219268
 20
42.2267870913
 30
0.0
 11
37.8925219268
 21
42.2267870913
 31
0.0
  0
LINE
  5
2C
100
AcDbEntity
  8
0
370
        15
390
0
  6
Continuous
 62
         7
100
AcDbLine
 10
36.1425219268
 20
42.2267870913
 30
0.0
 11
36.1425219268
 21
23.3767870913
 31
0.0
  0
LINE
  5
2D
100
AcDbEntity
  8
0
370
        15
390
0
  6
Continuous
 62
         7
100
AcDbLine
 10
36.1425219268
 20
23.3767870913
 30
0.0
 11
37.8925219268
 21
23.3767870913
 31
0.0
  0
LINE
  5
2E
100
AcDbEntity
  8
0
370
        15
390
0
  6
Continuous
 62
         7
100
AcDbLine
 10
37.8925219268
 20
42.2267870913
 30
0.0
 11
37.8925219268
 21
23.3767870913
 31
0.0
  0
LINE
  5
2F
100
AcDbEntity
  8
0
370
        15
390
0
  6
Continuous
 62
         7
100
AcDbLine
 10
39.6425219268
 20
23.3767870913
 30
0.0
 11
39.6425219268
 21
42.2267870913
 31
0.0
  0
LINE
  5
30
100
AcDbEntity
  8
0
370
        15
390
0
  6
Continuous
 62
         7
100
AcDbLine
 10
39.6425219268
 20
42.2267870913
 30
0.0
 11
37.8925219268
 21
42.2267870913
 31
0.0
  0
LINE
  5
31
100
AcDbEntity
  8
0
370
        15
390
0
  6
Continuous
 62
         7
100
AcDbLine
 10
1.8503751849
 20
110.7436315894
 30
0.0
 11
1.9741586935
 21
110.761028227
 31
0.0
  0
LINE
  5
32
100
AcDbEntity
  8
0
370
        15
390
0
  6
Continuous
 62
         7
100
AcDbLine
 10
1.5372357077
 20
112.971734744
 30
0.0
 11
1.8503751849
 21
110.7436315894
 31
0.0
  0
ARC
  5
33
100
AcDbEntity
  8
0
370
        15
390
0
  6
Continuous
 62
         7
100
AcDbCircle
 10
21.2043625208
 20
106.6307829887
 30
0.0
 40
5.0915872699
100
AcDbArc
 50
69.6871180825
 51
91.3156973246
  0
ARC
  5
34
100
AcDbEntity
  8
0
370
        15
390
0
  6
Continuous
 62
         7
100
AcDbCircle
 10
11.9080487216
 20
107.4458355567
 30
0.0
 40
10.1261414083
100
AcDbArc
 50
24.9731577878
 51
35.5862362465
  0
LINE
  5
35
100
AcDbEntity
  8
0
370
        15
390
0
  6
Continuous
 62
         7
100
AcDbLine
 10
19.9526673278
 20
114.6930733099
 30
0.0
 11
20.1430378012
 21
113.3385170073
 31
0.0
  0
ARC
  5
36
100
AcDbEntity
  8
0
370
        15
390
0
  6
Continuous
 62
         7
100
AcDbCircle
 10
19.9216837486
 20
114.6887188518
 30
0.0
 40
0.0312880726
100
AcDbArc
 50
8.0000000002
 51
188.0
  0
LINE
  5
37
100
AcDbEntity
  8
0
370
        15
390
0
  6
Continuous
 62
         7
100
AcDbLine
 10
20.0646665456
 20
113.4465293078
 30
0.0
 11
19.8907001694
 21
114.6843643937
 31
0.0
  0
ARC
  5
38
100
AcDbEntity
  8
0
370
        15
390
0
  6
Continuous
 62
         7
100
AcDbCircle
 10
11.9080487216
 20
107.4458355567
 30
0.0
 40
10.1261414083
100
AcDbArc
 50
36.3413250449
 51
68.2992536016
  0
LINE
  5
39
100
AcDbEntity
  8
0
370
        15
390
0
  6
Continuous
 62
         7
100
AcDbLine
 10
14.9232994808
 20
118.0085026748
 30
0.0
 11
15.6522792366
 21
116.8543145874
 31
0.0
  0
ARC
  5
3A
100
AcDbEntity
  8
0
370
        15
390
0
  6
Continuous
 62
         7
100
AcDbCircle
 10
14.8919881871
 20
117.9887266093
 30
0.0
 40
0.0370336318
100
AcDbArc
 50
32.2763135274
 51
212.2763135274
  0
LINE
  5
3B
100
AcDbEntity
  8
0
370
        15
390
0
  6
Continuous
 62
         7
100
AcDbLine
 10
15.5359628675
 20
116.8997754111
 30
0.0
 11
14.8606768933
 21
117.9689505437
 31
0.0
  0
ARC
  5
3C
100
AcDbEntity
  8
0
370
        15
390
0
  6
Continuous
 62
         7
100
AcDbCircle
 10
11.9080487216
 20
107.4458355567
 30
0.0
 40
10.1261414083
100
AcDbArc
 50
69.0058811666
 51
104.4417882712
  0
LINE
  5
3D
100
AcDbEntity
  8
0
370
        15
390
0
  6
Continuous
 62
         7
100
AcDbLine
 10
9.3826270251
 20
117.2520063218
 30
0.0
 11
8.5543032649
 21
117.870707599
 31
0.0
  0
ARC
  5
3E
100
AcDbEntity
  8
0
370
        15
390
0
  6
Continuous
 62
         7
100
AcDbCircle
 10
8.5256112461
 20
117.8322944233
 30
0.0
 40
0.0479458445
100
AcDbArc
 50
53.2427804467
 51
233.2427804467
  0
LINE
  5
3F
100
AcDbEntity
  8
0
370
        15
390
0
  6
Continuous
 62
         7
100
AcDbLine
 10
8.4969192274
 20
117.7938812476
 30
0.0
 11
9.2642319589
 21
117.220751042
 31
0.0
  0
ARC
  5
40
100
AcDbEntity
  8
0
370
        15
390
0
  6
Continuous
 62
         7
100
AcDbCircle
 10
11.9080487216
 20
107.4458355567
 30
0.0
 40
10.1261414083
100
AcDbArc
 50
105.1346461502
 51
135.7414308019
  0
LINE
  5
41
100
AcDbEntity
  8
0
370
        15
390
0
  6
Continuous
 62
         7
100
AcDbLine
 10
3.8198047927
 20
114.8109651705
 30
0.0
 11
4.6557308174
 21
114.5128451673
 31
0.0
  0
ARC
  5
42
100
AcDbEntity
  8
0
370
        15
390
0
  6
Continuous
 62
         7
100
AcDbCircle
 10
3.7953508499
 20
114.7423965171
 30
0.0
 40
0.0727987331
100
AcDbArc
 50
70.3720153888
 51
250.3720153888
  0
LINE
  5
43
100
AcDbEntity
  8
0
370
        15
390
0
  6
Continuous
 62
         7
100
AcDbLine
 10
4.5452512221
 20
114.3976664524
 30
0.0
 11
3.7708969072
 21
114.6738278638
 31
0.0
  0
ARC
  5
44
100
AcDbEntity
  8
0
370
        15
390
0
  6
Continuous
 62
         7
100
AcDbCircle
 10
11.9080487216
 20
107.4458355567
 30
0.0
 40
10.1261414083
100
AcDbArc
 50
136.6444845869
 51
151.69003902
  0
LINE
  5
45
100
AcDbEntity
  8
0
370
        15
390
0
  6
Continuous
 62
         7
100
AcDbLine
 10
1.9741586935
 20
110.761028227
 30
0.0
 11
2.993045276
 21
112.2480697643
 31
0.0
  0
ARC
  5
46
100
AcDbEntity
  8
0
370
        15
390
0
  6
Continuous
 62
         7
100
AcDbCircle
 10
11.9080487216
 20
107.4458355567
 30
0.0
 40
11.7511414083
100
AcDbArc
 50
19.6929541157
 51
151.9498888875
  0
LINE
  5
47
100
AcDbEntity
  8
0
370
        15
390
0
  6
Continuous
 62
         7
100
AcDbLine
 10
1.8048298781
 20
107.4253128548
 30
0.0
 11
1.9286133867
 21
107.4427094924
 31
0.0
  0
LINE
  5
48
100
AcDbEntity
  8
0
370
        15
390
0
  6
Continuous
 62
         7
100
AcDbLine
 10
1.4916904009
 20
109.6534160095
 30
0.0
 11
1.8048298781
 21
107.4253128548
 31
0.0
  0
ARC
  5
49
100
AcDbEntity
  8
0
370
        15
390
0
  6
Continuous
 62
         7
100
AcDbCircle
 10
21.158817214
 20
103.3124642541
 30
0.0
 40
5.0915872699
100
AcDbArc
 50
69.6871180825
 51
91.3156973246
  0
ARC
  5
4A
100
AcDbEntity
  8
0
370
        15
390
0
  6
Continuous
 62
         7
100
AcDbCircle
 10
11.8625034148
 20
104.1275168222
 30
0.0
 40
10.1261414083
100
AcDbArc
 50
24.9731577878
 51
35.5862362465
  0
LINE
  5
4B
100
AcDbEntity
  8
0
370
        15
390
0
  6
Continuous
 62
         7
100
AcDbLine
 10
19.907122021
 20
111.3747545753
 30
0.0
 11
20.0974924945
 21
110.0201982728
 31
0.0
  0
ARC
  5
4C
100
AcDbEntity
  8
0
370
        15
390
0
  6
Continuous
 62
         7
100
AcDbCircle
 10
19.8761384418
 20
111.3704001172
 30
0.0
 40
0.0312880726
100
AcDbArc
 50
8.0
 51
188.0
  0
LINE
  5
4D
100
AcDbEntity
  8
0
370
        15
390
0
  6
Continuous
 62
         7
100
AcDbLine
 10
20.0191212388
 20
110.1282105732
 30
0.0
 11
19.8451548626
 21
111.3660456591
 31
0.0
  0
ARC
  5
4E
100
AcDbEntity
  8
0
370
        15
390
0
  6
Continuous
 62
         7
100
AcDbCircle
 10
11.8625034148
 20
104.1275168222
 30
0.0
 40
10.1261414083
100
AcDbArc
 50
36.3413250449
 51
68.2992536016
  0
LINE
  5
4F
100
AcDbEntity
  8
0
370
        15
390
0
  6
Continuous
 62
         7
100
AcDbLine
 10
14.877754174
 20
114.6901839403
 30
0.0
 11
15.6067339298
 21
113.5359958528
 31
0.0
  0
ARC
  5
50
100
AcDbEntity
  8
0
370
        15
390
0
  6
Continuous
 62
         7
100
AcDbCircle
 10
14.8464428803
 20
114.6704078747
 30
0.0
 40
0.0370336318
100
AcDbArc
 50
32.2763135274
 51
212.2763135274
  0
LINE
  5
51
100
AcDbEntity
  8
0
370
        15
390
0
  6
Continuous
 62
         7
100
AcDbLine
 10
15.4904175607
 20
113.5814566765
 30
0.0
 11
14.8151315865
 21
114.6506318092
 31
0.0
  0
ARC
  5
52
100
AcDbEntity
  8
0
370
        15
390
0
  6
Continuous
 62
         7
100
AcDbCircle
 10
11.8625034148
 20
104.1275168222
 30
0.0
 40
10.1261414083
100
AcDbArc
 50
69.0058811666
 51
104.4417882712
  0
LINE
  5
53
100
AcDbEntity
  8
0
370
        15
390
0
  6
Continuous
 62
         7
100
AcDbLine
 10
9.3370817183
 20
113.9336875873
 30
0.0
 11
8.5087579581
 21
114.5523888644
 31
0.0
  0
ARC
  5
54
100
AcDbEntity
  8
0
370
        15
390
0
  6
Continuous
 62
         7
100
AcDbCircle
 10
8.4800659393
 20
114.5139756887
 30
0.0
 40
0.0479458445
100
AcDbArc
 50
53.2427804467
 51
233.2427804467
  0
LINE
  5
55
100
AcDbEntity
  8
0
370
        15
390
0
  6
Continuous
 62
         7
100
AcDbLine
 10
8.4513739206
 20
114.475562513
 30
0.0
 11
9.2186866521
 21
113.9024323075
 31
0.0
  0
ARC
  5
56
100
AcDbEntity
  8
0
370
        15
390
0
  6
Continuous
 62
         7
100
AcDbCircle
 10
11.8625034148
 20
104.1275168222
 30
0.0
 40
10.1261414083
100
AcDbArc
 50
105.1346461502
 51
135.7414308019
  0
LINE
  5
57
100
AcDbEntity
  8
0
370
        15
390
0
  6
Continuous
 62
         7
100
AcDbLine
 10
3.7742594859
 20
111.4926464359
 30
0.0
 11
4.6101855106
 21
111.1945264328
 31
0.0
  0
ARC
  5
58
100
AcDbEntity
  8
0
370
        15
390
0
  6
Continuous
 62
         7
100
AcDbCircle
 10
3.7498055431
 20
111.4240777826
 30
0.0
 40
0.0727987331
100
AcDbArc
 50
70.3720153888
 51
250.3720153888
  0
LINE
  5
59
100
AcDbEntity
  8
0
370
        15
390
0
  6
Continuous
 62
         7
100
AcDbLine
 10
4.4997059153
 20
111.0793477178
 30
0.0
 11
3.7253516004
 21
111.3555091292
 31
0.0
  0
ARC
  5
5A
100
AcDbEntity
  8
0
370
        15
390
0
  6
Continuous
 62
         7
100
AcDbCircle
 10
11.8625034148
 20
104.1275168222
 30
0.0
 40
10.1261414083
100
AcDbArc
 50
136.6444845869
 51
151.69003902
  0
LINE
  5
5B
100
AcDbEntity
  8
0
370
        15
390
0
  6
Continuous
 62
         7
100
AcDbLine
 10
1.9286133867
 20
107.4427094924
 30
0.0
 11
2.9474999692
 21
108.9297510298
 31
0.0
  0
ARC
  5
5C
100
AcDbEntity
  8
0
370
        15
390
0
  6
Continuous
 62
         7
100
AcDbCircle
 10
11.8625034148
 20
104.1275168222
 30
0.0
 40
11.7511414083
100
AcDbArc
 50
19.6929541157
 51
151.9498888875
  0
LINE
  5
5D
100
AcDbEntity
  8
0
370
        15
390
0
  6
Continuous
 62
         7
100
AcDbLine
 10
1.8394133869
 20
104.2436300406
 30
0.0
 11
1.9631968955
 21
104.2610266782
 31
0.0
  0
LINE
  5
5E
100
AcDbEntity
  8
0
370
        15
390
0
  6
Continuous
 62
         7
100
AcDbLine
 10
1.5262739098
 20
106.4717331953
 30
0.0
 11
1.8394133869
 21
104.2436300406
 31
0.0
  0
ARC
  5
5F
100
AcDbEntity
  8
0
370
        15
390
0
  6
Continuous
 62
         7
100
AcDbCircle
 10
21.1934007228
 20
100.1307814399
 30
0.0
 40
5.0915872699
100
AcDbArc
 50
69.6871180825
 51
91.3156973246
  0
ARC
  5
60
100
AcDbEntity
  8
0
370
        15
390
0
  6
Continuous
 62
         7
100
AcDbCircle
 10
11.8970869237
 20
100.945834008
 30
0.0
 40
10.1261414083
100
AcDbArc
 50
24.9731577878
 51
35.5862362465
  0
LINE
  5
61
100
AcDbEntity
  8
0
370
        15
390
0
  6
Continuous
 62
         7
100
AcDbLine
 10
19.9417055299
 20
108.1930717611
 30
0.0
 11
20.1320760033
 21
106.8385154586
 31
0.0
  0
ARC
  5
62
100
AcDbEntity
  8
0
370
        15
390
0
  6
Continuous
 62
         7
100
AcDbCircle
 10
19.9107219507
 20
108.188717303
 30
0.0
 40
0.0312880726
100
AcDbArc
 50
8.0
 51
188.0
  0
LINE
  5
63
100
AcDbEntity
  8
0
370
        15
390
0
  6
Continuous
 62
         7
100
AcDbLine
 10
20.0537047476
 20
106.946527759
 30
0.0
 11
19.8797383714
 21
108.1843628449
 31
0.0
  0
ARC
  5
64
100
AcDbEntity
  8
0
370
        15
390
0
  6
Continuous
 62
         7
100
AcDbCircle
 10
11.8970869237
 20
100.945834008
 30
0.0
 40
10.1261414083
100
AcDbArc
 50
36.3413250449
 51
68.2992536016
  0
LINE
  5
65
100
AcDbEntity
  8
0
370
        15
390
0
  6
Continuous
 62
         7
100
AcDbLine
 10
14.9123376829
 20
111.5085011261
 30
0.0
 11
15.6413174387
 21
110.3543130386
 31
0.0
  0
ARC
  5
66
100
AcDbEntity
  8
0
370
        15
390
0
  6
Continuous
 62
         7
100
AcDbCircle
 10
14.8810263891
 20
111.4887250605
 30
0.0
 40
0.0370336318
100
AcDbArc
 50
32.2763135274
 51
212.2763135274
  0
LINE
  5
67
100
AcDbEntity
  8
0
370
        15
390
0
  6
Continuous
 62
         7
100
AcDbLine
 10
15.5250010696
 20
110.3997738623
 30
0.0
 11
14.8497150954
 21
111.468948995
 31
0.0
  0
ARC
  5
68
100
AcDbEntity
  8
0
370
        15
390
0
  6
Continuous
 62
         7
100
AcDbCircle
 10
11.8970869237
 20
100.945834008
 30
0.0
 40
10.1261414083
100
AcDbArc
 50
69.0058811666
 51
104.4417882712
  0
LINE
  5
69
100
AcDbEntity
  8
0
370
        15
390
0
  6
Continuous
 62
         7
100
AcDbLine
 10
9.3716652271
 20
110.7520047731
 30
0.0
 11
8.5433414669
 21
111.3707060502
 31
0.0
  0
ARC
  5
6A
100
AcDbEntity
  8
0
370
        15
390
0
  6
Continuous
 62
         7
100
AcDbCircle
 10
8.5146494482
 20
111.3322928745
 30
0.0
 40
0.0479458445
100
AcDbArc
 50
53.2427804467
 51
233.2427804467
  0
LINE
  5
6B
100
AcDbEntity
  8
0
370
        15
390
0
  6
Continuous
 62
         7
100
AcDbLine
 10
8.4859574294
 20
111.2938796988
 30
0.0
 11
9.2532701609
 21
110.7207494933
 31
0.0
  0
ARC
  5
6C
100
AcDbEntity
  8
0
370
        15
390
0
  6
Continuous
 62
         7
100
AcDbCircle
 10
11.8970869237
 20
100.945834008
 30
0.0
 40
10.1261414083
100
AcDbArc
 50
105.1346461502
 51
135.7414308019
  0
LINE
  5
6D
100
AcDbEntity
  8
0
370
        15
390
0
  6
Continuous
 62
         7
100
AcDbLine
 10
3.8088429947
 20
108.3109636217
 30
0.0
 11
4.6447690195
 21
108.0128436186
 31
0.0
  0
ARC
  5
6E
100
AcDbEntity
  8
0
370
        15
390
0
  6
Continuous
 62
         7
100
AcDbCircle
 10
3.784389052
 20
108.2423949684
 30
0.0
 40
0.0727987331
100
AcDbArc
 50
70.3720153888
 51
250.3720153888
  0
LINE
  5
6F
100
AcDbEntity
  8
0
370
        15
390
0
  6
Continuous
 62
         7
100
AcDbLine
 10
4.5342894242
 20
107.8976649036
 30
0.0
 11
3.7599351092
 21
108.173826315
 31
0.0
  0
ARC
  5
70
100
AcDbEntity
  8
0
370
        15
390
0
  6
Continuous
 62
         7
100
AcDbCircle
 10
11.8970869237
 20
100.945834008
 30
0.0
 40
10.1261414083
100
AcDbArc
 50
136.6444845869
 51
151.69003902
  0
LINE
  5
71
100
AcDbEntity
  8
0
370
        15
390
0
  6
Continuous
 62
         7
100
AcDbLine
 10
1.9631968955
 20
104.2610266782
 30
0.0
 11
2.982083478
 21
105.7480682156
 31
0.0
  0
ARC
  5
72
100
AcDbEntity
  8
0
370
        15
390
0
  6
Continuous
 62
         7
100
AcDbCircle
 10
11.8970869237
 20
100.945834008
 30
0.0
 40
11.7511414083
100
AcDbArc
 50
19.6929541157
 51
151.9498888875
  0
LINE
  5
73
100
AcDbEntity
  8
0
370
        15
390
0
  6
Continuous
 62
         7
100
AcDbLine
 10
1.8803336568
 20
100.9813627116
 30
0.0
 11
2.0041171654
 21
100.9987593492
 31
0.0
  0
LINE
  5
74
100
AcDbEntity
  8
0
370
        15
390
0
  6
Continuous
 62
         7
100
AcDbLine
 10
1.5671941796
 20
103.2094658662
 30
0.0
 11
1.8803336568
 21
100.9813627116
 31
0.0
  0
ARC
  5
75
100
AcDbEntity
  8
0
370
        15
390
0
  6
Continuous
 62
         7
100
AcDbCircle
 10
21.2343209927
 20
96.8685141109
 30
0.0
 40
5.0915872699
100
AcDbArc
 50
69.6871180825
 51
91.3156973246
  0
ARC
  5
76
100
AcDbEntity
  8
0
370
        15
390
0
  6
Continuous
 62
         7
100
AcDbCircle
 10
11.9380071935
 20
97.6835666789
 30
0.0
 40
10.1261414083
100
AcDbArc
 50
24.9731577878
 51
35.5862362465
  0
LINE
  5
77
100
AcDbEntity
  8
0
370
        15
390
0
  6
Continuous
 62
         7
100
AcDbLine
 10
19.9826257997
 20
104.9308044321
 30
0.0
 11
20.1729962731
 21
103.5762481295
 31
0.0
  0
ARC
  5
78
100
AcDbEntity
  8
0
370
        15
390
0
  6
Continuous
 62
         7
100
AcDbCircle
 10
19.9516422205
 20
104.926449974
 30
0.0
 40
0.0312880726
100
AcDbArc
 50
8.0
 51
188.0
  0
LINE
  5
79
100
AcDbEntity
  8
0
370
        15
390
0
  6
Continuous
 62
         7
100
AcDbLine
 10
20.0946250175
 20
103.68426043
 30
0.0
 11
19.9206586413
 21
104.9220955159
 31
0.0
  0
ARC
  5
7A
100
AcDbEntity
  8
0
370
        15
390
0
  6
Continuous
 62
         7
100
AcDbCircle
 10
11.9380071935
 20
97.6835666789
 30
0.0
 40
10.1261414083
100
AcDbArc
 50
36.3413250449
 51
68.2992536016
  0
LINE
  5
7B
100
AcDbEntity
  8
0
370
        15
390
0
  6
Continuous
 62
         7
100
AcDbLine
 10
14.9532579527
 20
108.246233797
 30
0.0
 11
15.6822377085
 21
107.0920457096
 31
0.0
  0
ARC
  5
7C
100
AcDbEntity
  8
0
370
        15
390
0
  6
Continuous
 62
         7
100
AcDbCircle
 10
14.9219466589
 20
108.2264577315
 30
0.0
 40
0.0370336318
100
AcDbArc
 50
32.2763135274
 51
212.2763135274
  0
LINE
  5
7D
100
AcDbEntity
  8
0
370
        15
390
0
  6
Continuous
 62
         7
100
AcDbLine
 10
15.5659213394
 20
107.1375065333
 30
0.0
 11
14.8906353652
 21
108.2066816659
 31
0.0
  0
ARC
  5
7E
100
AcDbEntity
  8
0
370
        15
390
0
  6
Continuous
 62
         7
100
AcDbCircle
 10
11.9380071935
 20
97.6835666789
 30
0.0
 40
10.1261414083
100
AcDbArc
 50
69.0058811666
 51
104.4417882712
  0
LINE
  5
7F
100
AcDbEntity
  8
0
370
        15
390
0
  6
Continuous
 62
         7
100
AcDbLine
 10
9.412585497
 20
107.489737444
 30
0.0
 11
8.5842617368
 21
108.1084387212
 31
0.0
  0
ARC
  5
80
100
AcDbEntity
  8
0
370
        15
390
0
  6
Continuous
 62
         7
100
AcDbCircle
 10
8.555569718
 20
108.0700255455
 30
0.0
 40
0.0479458445
100
AcDbArc
 50
53.2427804467
 51
233.2427804467
  0
LINE
  5
81
100
AcDbEntity
  8
0
370
        15
390
0
  6
Continuous
 62
         7
100
AcDbLine
 10
8.5268776993
 20
108.0316123698
 30
0.0
 11
9.2941904308
 21
107.4584821642
 31
0.0
  0
ARC
  5
82
100
AcDbEntity
  8
0
370
        15
390
0
  6
Continuous
 62
         7
100
AcDbCircle
 10
11.9380071935
 20
97.6835666789
 30
0.0
 40
10.1261414083
100
AcDbArc
 50
105.1346461502
 51
135.7414308019
  0
LINE
  5
83
100
AcDbEntity
  8
0
370
        15
390
0
  6
Continuous
 62
         7
100
AcDbLine
 10
3.8497632646
 20
105.0486962927
 30
0.0
 11
4.6856892893
 21
104.7505762895
 31
0.0
  0
ARC
  5
84
100
AcDbEntity
  8
0
370
        15
390
0
  6
Continuous
 62
         7
100
AcDbCircle
 10
3.8253093218
 20
104.9801276393
 30
0.0
 40
0.0727987331
100
AcDbArc
 50
70.3720153888
 51
250.3720153888
  0
LINE
  5
85
100
AcDbEntity
  8
0
370
        15
390
0
  6
Continuous
 62
         7
100
AcDbLine
 10
4.575209694
 20
104.6353975746
 30
0.0
 11
3.8008553791
 21
104.911558986
 31
0.0
  0
ARC
  5
86
100
AcDbEntity
  8
0
370
        15
390
0
  6
Continuous
 62
         7
100
AcDbCircle
 10
11.9380071935
 20
97.6835666789
 30
0.0
 40
10.1261414083
100
AcDbArc
 50
136.6444845869
 51
151.69003902
  0
LINE
  5
87
100
AcDbEntity
  8
0
370
        15
390
0
  6
Continuous
 62
         7
100
AcDbLine
 10
2.0041171654
 20
100.9987593492
 30
0.0
 11
3.0230037479
 21
102.4858008865
 31
0.0
  0
ARC
  5
88
100
AcDbEntity
  8
0
370
        15
390
0
  6
Continuous
 62
         7
100
AcDbCircle
 10
11.9380071935
 20
97.6835666789
 30
0.0
 40
11.7511414083
100
AcDbArc
 50
19.6929541157
 51
151.9498888875
  0
LINE
  5
89
100
AcDbEntity
  8
0
370
        15
390
0
  6
Continuous
 62
         7
100
AcDbLine
 10
1.8678947889
 20
97.6483549316
 30
0.0
 11
1.9916782975
 21
97.6657515692
 31
0.0
  0
LINE
  5
8A
100
AcDbEntity
  8
0
370
        15
390
0
  6
Continuous
 62
         7
100
AcDbLine
 10
1.5547553118
 20
99.8764580863
 30
0.0
 11
1.8678947889
 21
97.6483549316
 31
0.0
  0
ARC
  5
8B
100
AcDbEntity
  8
0
370
        15
390
0
  6
Continuous
 62
         7
100
AcDbCircle
 10
21.2218821248
 20
93.5355063309
 30
0.0
 40
5.0915872699
100
AcDbArc
 50
69.6871180825
 51
91.3156973246
  0
ARC
  5
8C
100
AcDbEntity
  8
0
370
        15
390
0
  6
Continuous
 62
         7
100
AcDbCircle
 10
11.9255683256
 20
94.3505588989
 30
0.0
 40
10.1261414083
100
AcDbArc
 50
24.9731577878
 51
35.5862362465
  0
LINE
  5
8D
100
AcDbEntity
  8
0
370
        15
390
0
  6
Continuous
 62
         7
100
AcDbLine
 10
19.9701869319
 20
101.5977966521
 30
0.0
 11
20.1605574053
 21
100.2432403495
 31
0.0
  0
ARC
  5
8E
100
AcDbEntity
  8
0
370
        15
390
0
  6
Continuous
 62
         7
100
AcDbCircle
 10
19.9392033526
 20
101.593442194
 30
0.0
 40
0.0312880726
100
AcDbArc
 50
8.0000000001
 51
188.0
  0
LINE
  5
8F
100
AcDbEntity
  8
0
370
        15
390
0
  6
Continuous
 62
         7
100
AcDbLine
 10
20.0821861496
 20
100.35125265
 30
0.0
 11
19.9082197734
 21
101.5890877359
 31
0.0
  0
ARC
  5
90
100
AcDbEntity
  8
0
370
        15
390
0
  6
Continuous
 62
         7
100
AcDbCircle
 10
11.9255683256
 20
94.3505588989
 30
0.0
 40
10.1261414083
100
AcDbArc
 50
36.3413250449
 51
68.2992536016
  0
LINE
  5
91
100
AcDbEntity
  8
0
370
        15
390
0
  6
Continuous
 62
         7
100
AcDbLine
 10
14.9408190849
 20
104.9132260171
 30
0.0
 11
15.6697988406
 21
103.7590379296
 31
0.0
  0
ARC
  5
92
100
AcDbEntity
  8
0
370
        15
390
0
  6
Continuous
 62
         7
100
AcDbCircle
 10
14.9095077911
 20
104.8934499515
 30
0.0
 40
0.0370336318
100
AcDbArc
 50
32.2763135274
 51
212.2763135274
  0
LINE
  5
93
100
AcDbEntity
  8
0
370
        15
390
0
  6
Continuous
 62
         7
100
AcDbLine
 10
15.5534824716
 20
103.8044987533
 30
0.0
 11
14.8781964973
 21
104.8736738859
 31
0.0
  0
ARC
  5
94
100
AcDbEntity
  8
0
370
        15
390
0
  6
Continuous
 62
         7
100
AcDbCircle
 10
11.9255683256
 20
94.3505588989
 30
0.0
 40
10.1261414083
100
AcDbArc
 50
69.0058811666
 51
104.4417882712
  0
LINE
  5
95
100
AcDbEntity
  8
0
370
        15
390
0
  6
Continuous
 62
         7
100
AcDbLine
 10
9.4001466291
 20
104.1567296641
 30
0.0
 11
8.5718228689
 21
104.7754309412
 31
0.0
  0
ARC
  5
96
100
AcDbEntity
  8
0
370
        15
390
0
  6
Continuous
 62
         7
100
AcDbCircle
 10
8.5431308502
 20
104.7370177655
 30
0.0
 40
0.0479458445
100
AcDbArc
 50
53.2427804467
 51
233.2427804467
  0
LINE
  5
97
100
AcDbEntity
  8
0
370
        15
390
0
  6
Continuous
 62
         7
100
AcDbLine
 10
8.5144388314
 20
104.6986045898
 30
0.0
 11
9.2817515629
 21
104.1254743843
 31
0.0
  0
ARC
  5
98
100
AcDbEntity
  8
0
370
        15
390
0
  6
Continuous
 62
         7
100
AcDbCircle
 10
11.9255683256
 20
94.3505588989
 30
0.0
 40
10.1261414083
100
AcDbArc
 50
105.1346461502
 51
135.7414308019
  0
LINE
  5
99
100
AcDbEntity
  8
0
370
        15
390
0
  6
Continuous
 62
         7
100
AcDbLine
 10
3.8373243967
 20
101.7156885127
 30
0.0
 11
4.6732504214
 21
101.4175685096
 31
0.0
  0
ARC
  5
9A
100
AcDbEntity
  8
0
370
        15
390
0
  6
Continuous
 62
         7
100
AcDbCircle
 10
3.812870454
 20
101.6471198594
 30
0.0
 40
0.0727987331
100
AcDbArc
 50
70.3720153888
 51
250.3720153888
  0
LINE
  5
9B
100
AcDbEntity
  8
0
370
        15
390
0
  6
Continuous
 62
         7
100
AcDbLine
 10
4.5627708262
 20
101.3023897946
 30
0.0
 11
3.7884165112
 21
101.578551206
 31
0.0
  0
ARC
  5
9C
100
AcDbEntity
  8
0
370
        15
390
0
  6
Continuous
 62
         7
100
AcDbCircle
 10
11.9255683256
 20
94.3505588989
 30
0.0
 40
10.1261414083
100
AcDbArc
 50
136.6444845869
 51
151.69003902
  0
LINE
  5
9D
100
AcDbEntity
  8
0
370
        15
390
0
  6
Continuous
 62
         7
100
AcDbLine
 10
1.9916782975
 20
97.6657515692
 30
0.0
 11
3.01056488
 21
99.1527931066
 31
0.0
  0
ARC
  5
9E
100
AcDbEntity
  8
0
370
        15
390
0
  6
Continuous
 62
         7
100
AcDbCircle
 10
11.9255683256
 20
94.3505588989
 30
0.0
 40
11.7511414083
100
AcDbArc
 50
19.6929541157
 51
151.9498888875
  0
LINE
  5
9F
100
AcDbEntity
  8
0
370
        15
390
0
  6
Continuous
 62
         7
100
AcDbLine
 10
1.9241573745
 20
94.119696542
 30
0.0
 11
2.0479408831
 21
94.1370931796
 31
0.0
  0
LINE
  5
A0
100
AcDbEntity
  8
0
370
        15
390
0
  6
Continuous
 62
         7
100
AcDbLine
 10
1.6110178974
 20
96.3477996966
 30
0.0
 11
1.9241573745
 21
94.119696542
 31
0.0
  0
ARC
  5
A1
100
AcDbEntity
  8
0
370
        15
390
0
  6
Continuous
 62
         7
100
AcDbCircle
 10
21.2781447104
 20
90.0068479413
 30
0.0
 40
5.0915872699
100
AcDbArc
 50
69.6871180825
 51
91.3156973246
  0
ARC
  5
A2
100
AcDbEntity
  8
0
370
        15
390
0
  6
Continuous
 62
         7
100
AcDbCircle
 10
11.9818309112
 20
90.8219005093
 30
0.0
 40
10.1261414083
100
AcDbArc
 50
24.9731577878
 51
35.5862362465
  0
LINE
  5
A3
100
AcDbEntity
  8
0
370
        15
390
0
  6
Continuous
 62
         7
100
AcDbLine
 10
20.0264495175
 20
98.0691382624
 30
0.0
 11
20.2168199909
 21
96.7145819599
 31
0.0
  0
ARC
  5
A4
100
AcDbEntity
  8
0
370
        15
390
0
  6
Continuous
 62
         7
100
AcDbCircle
 10
19.9954659382
 20
98.0647838044
 30
0.0
 40
0.0312880726
100
AcDbArc
 50
8.0
 51
188.0
  0
LINE
  5
A5
100
AcDbEntity
  8
0
370
        15
390
0
  6
Continuous
 62
         7
100
AcDbLine
 10
20.1384487352
 20
96.8225942603
 30
0.0
 11
19.964482359
 21
98.0604293463
 31
0.0
  0
ARC
  5
A6
100
AcDbEntity
  8
0
370
        15
390
0
  6
Continuous
 62
         7
100
AcDbCircle
 10
11.9818309112
 20
90.8219005093
 30
0.0
 40
10.1261414083
100
AcDbArc
 50
36.3413250449
 51
68.2992536016
  0
LINE
  5
A7
100
AcDbEntity
  8
0
370
        15
390
0
  6
Continuous
 62
         7
100
AcDbLine
 10
14.9970816705
 20
101.3845676274
 30
0.0
 11
15.7260614263
 21
100.23037954
 31
0.0
  0
ARC
  5
A8
100
AcDbEntity
  8
0
370
        15
390
0
  6
Continuous
 62
         7
100
AcDbCircle
 10
14.9657703767
 20
101.3647915619
 30
0.0
 40
0.0370336318
100
AcDbArc
 50
32.2763135274
 51
212.2763135274
  0
LINE
  5
A9
100
AcDbEntity
  8
0
370
        15
390
0
  6
Continuous
 62
         7
100
AcDbLine
 10
15.6097450572
 20
100.2758403637
 30
0.0
 11
14.9344590829
 21
101.3450154963
 31
0.0
  0
ARC
  5
AA
100
AcDbEntity
  8
0
370
        15
390
0
  6
Continuous
 62
         7
100
AcDbCircle
 10
11.9818309112
 20
90.8219005093
 30
0.0
 40
10.1261414083
100
AcDbArc
 50
69.0058811666
 51
104.4417882712
  0
LINE
  5
AB
100
AcDbEntity
  8
0
370
        15
390
0
  6
Continuous
 62
         7
100
AcDbLine
 10
9.4564092147
 20
100.6280712744
 30
0.0
 11
8.6280854545
 21
101.2467725516
 31
0.0
  0
ARC
  5
AC
100
AcDbEntity
  8
0
370
        15
390
0
  6
Continuous
 62
         7
100
AcDbCircle
 10
8.5993934358
 20
101.2083593759
 30
0.0
 40
0.0479458445
100
AcDbArc
 50
53.2427804467
 51
233.2427804467
  0
LINE
  5
AD
100
AcDbEntity
  8
0
370
        15
390
0
  6
Continuous
 62
         7
100
AcDbLine
 10
8.570701417
 20
101.1699462002
 30
0.0
 11
9.3380141485
 21
100.5968159946
 31
0.0
  0
ARC
  5
AE
100
AcDbEntity
  8
0
370
        15
390
0
  6
Continuous
 62
         7
100
AcDbCircle
 10
11.9818309112
 20
90.8219005093
 30
0.0
 40
10.1261414083
100
AcDbArc
 50
105.1346461502
 51
135.7414308019
  0
LINE
  5
AF
100
AcDbEntity
  8
0
370
        15
390
0
  6
Continuous
 62
         7
100
AcDbLine
 10
3.8935869823
 20
98.1870301231
 30
0.0
 11
4.729513007
 21
97.8889101199
 31
0.0
  0
ARC
  5
B0
100
AcDbEntity
  8
0
370
        15
390
0
  6
Continuous
 62
         7
100
AcDbCircle
 10
3.8691330396
 20
98.1184614697
 30
0.0
 40
0.0727987331
100
AcDbArc
 50
70.3720153888
 51
250.3720153888
  0
LINE
  5
B1
100
AcDbEntity
  8
0
370
        15
390
0
  6
Continuous
 62
         7
100
AcDbLine
 10
4.6190334118
 20
97.773731405
 30
0.0
 11
3.8446790968
 21
98.0498928164
 31
0.0
  0
ARC
  5
B2
100
AcDbEntity
  8
0
370
        15
390
0
  6
Continuous
 62
         7
100
AcDbCircle
 10
11.9818309112
 20
90.8219005093
 30
0.0
 40
10.1261414083
100
AcDbArc
 50
136.6444845869
 51
151.69003902
  0
LINE
  5
B3
100
AcDbEntity
  8
0
370
        15
390
0
  6
Continuous
 62
         7
100
AcDbLine
 10
2.0479408831
 20
94.1370931796
 30
0.0
 11
3.0668274656
 21
95.6241347169
 31
0.0
  0
ARC
  5
B4
100
AcDbEntity
  8
0
370
        15
390
0
  6
Continuous
 62
         7
100
AcDbCircle
 10
11.9818309112
 20
90.8219005093
 30
0.0
 40
11.7511414083
100
AcDbArc
 50
19.6929541157
 51
151.9498888875
  0
LINE
  5
B5
100
AcDbEntity
  8
0
370
        15
390
0
  6
Continuous
 62
         7
100
AcDbLine
 10
1.8786120677
 20
90.8013778074
 30
0.0
 11
2.0023955763
 21
90.818774445
 31
0.0
  0
LINE
  5
B6
100
AcDbEntity
  8
0
370
        15
390
0
  6
Continuous
 62
         7
100
AcDbLine
 10
1.5654725906
 20
93.0294809621
 30
0.0
 11
1.8786120677
 21
90.8013778074
 31
0.0
  0
ARC
  5
B7
100
AcDbEntity
  8
0
370
        15
390
0
  6
Continuous
 62
         7
100
AcDbCircle
 10
21.2325994036
 20
86.6885292067
 30
0.0
 40
5.0915872699
100
AcDbArc
 50
69.6871180825
 51
91.3156973246
  0
ARC
  5
B8
100
AcDbEntity
  8
0
370
        15
390
0
  6
Continuous
 62
         7
100
AcDbCircle
 10
11.9362856044
 20
87.5035817747
 30
0.0
 40
10.1261414083
100
AcDbArc
 50
24.9731577878
 51
35.5862362465
  0
LINE
  5
B9
100
AcDbEntity
  8
0
370
        15
390
0
  6
Continuous
 62
         7
100
AcDbLine
 10
19.9809042107
 20
94.7508195279
 30
0.0
 11
20.1712746841
 21
93.3962632253
 31
0.0
  0
ARC
  5
BA
100
AcDbEntity
  8
0
370
        15
390
0
  6
Continuous
 62
         7
100
AcDbCircle
 10
19.9499206315
 20
94.7464650698
 30
0.0
 40
0.0312880726
100
AcDbArc
 50
8.0000000001
 51
188.0
  0
LINE
  5
BB
100
AcDbEntity
  8
0
370
        15
390
0
  6
Continuous
 62
         7
100
AcDbLine
 10
20.0929034284
 20
93.5042755258
 30
0.0
 11
19.9189370522
 21
94.7421106117
 31
0.0
  0
ARC
  5
BC
100
AcDbEntity
  8
0
370
        15
390
0
  6
Continuous
 62
         7
100
AcDbCircle
 10
11.9362856044
 20
87.5035817747
 30
0.0
 40
10.1261414083
100
AcDbArc
 50
36.3413250449
 51
68.2992536016
  0
LINE
  5
BD
100
AcDbEntity
  8
0
370
        15
390
0
  6
Continuous
 62
         7
100
AcDbLine
 10
14.9515363637
 20
98.0662488929
 30
0.0
 11
15.6805161195
 21
96.9120608054
 31
0.0
  0
ARC
  5
BE
100
AcDbEntity
  8
0
370
        15
390
0
  6
Continuous
 62
         7
100
AcDbCircle
 10
14.9202250699
 20
98.0464728273
 30
0.0
 40
0.0370336318
100
AcDbArc
 50
32.2763135274
 51
212.2763135274
  0
LINE
  5
BF
100
AcDbEntity
  8
0
370
        15
390
0
  6
Continuous
 62
         7
100
AcDbLine
 10
15.5641997504
 20
96.9575216291
 30
0.0
 11
14.8889137762
 21
98.0266967618
 31
0.0
  0
ARC
  5
C0
100
AcDbEntity
  8
0
370
        15
390
0
  6
Continuous
 62
         7
100
AcDbCircle
 10
11.9362856044
 20
87.5035817747
 30
0.0
 40
10.1261414083
100
AcDbArc
 50
69.0058811666
 51
104.4417882712
  0
LINE
  5
C1
100
AcDbEntity
  8
0
370
        15
390
0
  6
Continuous
 62
         7
100
AcDbLine
 10
9.4108639079
 20
97.3097525399
 30
0.0
 11
8.5825401477
 21
97.928453817
 31
0.0
  0
ARC
  5
C2
100
AcDbEntity
  8
0
370
        15
390
0
  6
Continuous
 62
         7
100
AcDbCircle
 10
8.553848129
 20
97.8900406413
 30
0.0
 40
0.0479458445
100
AcDbArc
 50
53.2427804467
 51
233.2427804467
  0
LINE
  5
C3
100
AcDbEntity
  8
0
370
        15
390
0
  6
Continuous
 62
         7
100
AcDbLine
 10
8.5251561102
 20
97.8516274656
 30
0.0
 11
9.2924688417
 21
97.2784972601
 31
0.0
  0
ARC
  5
C4
100
AcDbEntity
  8
0
370
        15
390
0
  6
Continuous
 62
         7
100
AcDbCircle
 10
11.9362856044
 20
87.5035817747
 30
0.0
 40
10.1261414083
100
AcDbArc
 50
105.1346461502
 51
135.7414308019
  0
LINE
  5
C5
100
AcDbEntity
  8
0
370
        15
390
0
  6
Continuous
 62
         7
100
AcDbLine
 10
3.8480416755
 20
94.8687113885
 30
0.0
 11
4.6839677002
 21
94.5705913854
 31
0.0
  0
ARC
  5
C6
100
AcDbEntity
  8
0
370
        15
390
0
  6
Continuous
 62
         7
100
AcDbCircle
 10
3.8235877328
 20
94.8001427352
 30
0.0
 40
0.0727987331
100
AcDbArc
 50
70.3720153888
 51
250.3720153888
  0
LINE
  5
C7
100
AcDbEntity
  8
0
370
        15
390
0
  6
Continuous
 62
         7
100
AcDbLine
 10
4.573488105
 20
94.4554126704
 30
0.0
 11
3.79913379
 21
94.7315740818
 31
0.0
  0
ARC
  5
C8
100
AcDbEntity
  8
0
370
        15
390
0
  6
Continuous
 62
         7
100
AcDbCircle
 10
11.9362856044
 20
87.5035817747
 30
0.0
 40
10.1261414083
100
AcDbArc
 50
136.6444845869
 51
151.69003902
  0
LINE
  5
C9
100
AcDbEntity
  8
0
370
        15
390
0
  6
Continuous
 62
         7
100
AcDbLine
 10
2.0023955763
 20
90.818774445
 30
0.0
 11
3.0212821588
 21
92.3058159824
 31
0.0
  0
ARC
  5
CA
100
AcDbEntity
  8
0
370
        15
390
0
  6
Continuous
 62
         7
100
AcDbCircle
 10
11.9362856044
 20
87.5035817747
 30
0.0
 40
11.7511414083
100
AcDbArc
 50
19.6929541157
 51
151.9498888875
  0
LINE
  5
CB
100
AcDbEntity
  8
0
370
        15
390
0
  6
Continuous
 62
         7
100
AcDbLine
 10
1.9131955766
 20
87.6196949932
 30
0.0
 11
2.0369790852
 21
87.6370916308
 31
0.0
  0
LINE
  5
CC
100
AcDbEntity
  8
0
370
        15
390
0
  6
Continuous
 62
         7
100
AcDbLine
 10
1.6000560994
 20
89.8477981479
 30
0.0
 11
1.9131955766
 21
87.6196949932
 31
0.0
  0
ARC
  5
CD
100
AcDbEntity
  8
0
370
        15
390
0
  6
Continuous
 62
         7
100
AcDbCircle
 10
21.2671829125
 20
83.5068463925
 30
0.0
 40
5.0915872699
100
AcDbArc
 50
69.6871180825
 51
91.3156973246
  0
ARC
  5
CE
100
AcDbEntity
  8
0
370
        15
390
0
  6
Continuous
 62
         7
100
AcDbCircle
 10
11.9708691133
 20
84.3218989605
 30
0.0
 40
10.1261414083
100
AcDbArc
 50
24.9731577878
 51
35.5862362465
  0
LINE
  5
CF
100
AcDbEntity
  8
0
370
        15
390
0
  6
Continuous
 62
         7
100
AcDbLine
 10
20.0154877195
 20
91.5691367137
 30
0.0
 11
20.205858193
 21
90.2145804111
 31
0.0
  0
ARC
  5
D0
100
AcDbEntity
  8
0
370
        15
390
0
  6
Continuous
 62
         7
100
AcDbCircle
 10
19.9845041403
 20
91.5647822556
 30
0.0
 40
0.0312880726
100
AcDbArc
 50
8.0000000001
 51
188.0
  0
LINE
  5
D1
100
AcDbEntity
  8
0
370
        15
390
0
  6
Continuous
 62
         7
100
AcDbLine
 10
20.1274869373
 20
90.3225927116
 30
0.0
 11
19.9535205611
 21
91.5604277975
 31
0.0
  0
ARC
  5
D2
100
AcDbEntity
  8
0
370
        15
390
0
  6
Continuous
 62
         7
100
AcDbCircle
 10
11.9708691133
 20
84.3218989605
 30
0.0
 40
10.1261414083
100
AcDbArc
 50
36.3413250449
 51
68.2992536016
  0
LINE
  5
D3
100
AcDbEntity
  8
0
370
        15
390
0
  6
Continuous
 62
         7
100
AcDbLine
 10
14.9861198725
 20
94.8845660787
 30
0.0
 11
15.7150996283
 21
93.7303779912
 31
0.0
  0
ARC
  5
D4
100
AcDbEntity
  8
0
370
        15
390
0
  6
Continuous
 62
         7
100
AcDbCircle
 10
14.9548085788
 20
94.8647900131
 30
0.0
 40
0.0370336318
100
AcDbArc
 50
32.2763135274
 51
212.2763135274
  0
LINE
  5
D5
100
AcDbEntity
  8
0
370
        15
390
0
  6
Continuous
 62
         7
100
AcDbLine
 10
15.5987832592
 20
93.7758388149
 30
0.0
 11
14.923497285
 21
94.8450139476
 31
0.0
  0
ARC
  5
D6
100
AcDbEntity
  8
0
370
        15
390
0
  6
Continuous
 62
         7
100
AcDbCircle
 10
11.9708691133
 20
84.3218989605
 30
0.0
 40
10.1261414083
100
AcDbArc
 50
69.0058811666
 51
104.4417882712
  0
LINE
  5
D7
100
AcDbEntity
  8
0
370
        15
390
0
  6
Continuous
 62
         7
100
AcDbLine
 10
9.4454474168
 20
94.1280697257
 30
0.0
 11
8.6171236566
 21
94.7467710028
 31
0.0
  0
ARC
  5
D8
100
AcDbEntity
  8
0
370
        15
390
0
  6
Continuous
 62
         7
100
AcDbCircle
 10
8.5884316378
 20
94.7083578271
 30
0.0
 40
0.0479458445
100
AcDbArc
 50
53.2427804467
 51
233.2427804467
  0
LINE
  5
D9
100
AcDbEntity
  8
0
370
        15
390
0
  6
Continuous
 62
         7
100
AcDbLine
 10
8.5597396191
 20
94.6699446514
 30
0.0
 11
9.3270523506
 21
94.0968144459
 31
0.0
  0
ARC
  5
DA
100
AcDbEntity
  8
0
370
        15
390
0
  6
Continuous
 62
         7
100
AcDbCircle
 10
11.9708691133
 20
84.3218989605
 30
0.0
 40
10.1261414083
100
AcDbArc
 50
105.1346461502
 51
135.7414308019
  0
LINE
  5
DB
100
AcDbEntity
  8
0
370
        15
390
0
  6
Continuous
 62
         7
100
AcDbLine
 10
3.8826251844
 20
91.6870285743
 30
0.0
 11
4.7185512091
 21
91.3889085712
 31
0.0
  0
ARC
  5
DC
100
AcDbEntity
  8
0
370
        15
390
0
  6
Continuous
 62
         7
100
AcDbCircle
 10
3.8581712416
 20
91.618459921
 30
0.0
 40
0.0727987331
100
AcDbArc
 50
70.3720153888
 51
250.3720153888
  0
LINE
  5
DD
100
AcDbEntity
  8
0
370
        15
390
0
  6
Continuous
 62
         7
100
AcDbLine
 10
4.6080716138
 20
91.2737298562
 30
0.0
 11
3.8337172989
 21
91.5498912676
 31
0.0
  0
ARC
  5
DE
100
AcDbEntity
  8
0
370
        15
390
0
  6
Continuous
 62
         7
100
AcDbCircle
 10
11.9708691133
 20
84.3218989605
 30
0.0
 40
10.1261414083
100
AcDbArc
 50
136.6444845869
 51
151.69003902
  0
LINE
  5
DF
100
AcDbEntity
  8
0
370
        15
390
0
  6
Continuous
 62
         7
100
AcDbLine
 10
2.0369790852
 20
87.6370916308
 30
0.0
 11
3.0558656677
 21
89.1241331682
 31
0.0
  0
ARC
  5
E0
100
AcDbEntity
  8
0
370
        15
390
0
  6
Continuous
 62
         7
100
AcDbCircle
 10
11.9708691133
 20
84.3218989605
 30
0.0
 40
11.7511414083
100
AcDbArc
 50
19.6929541157
 51
151.9498888875
  0
LINE
  5
E1
100
AcDbEntity
  8
0
370
        15
390
0
  6
Continuous
 62
         7
100
AcDbLine
 10
1.9541158464
 20
84.3574276642
 30
0.0
 11
2.077899355
 21
84.3748243018
 31
0.0
  0
LINE
  5
E2
100
AcDbEntity
  8
0
370
        15
390
0
  6
Continuous
 62
         7
100
AcDbLine
 10
1.6409763692
 20
86.5855308188
 30
0.0
 11
1.9541158464
 21
84.3574276642
 31
0.0
  0
ARC
  5
E3
100
AcDbEntity
  8
0
370
        15
390
0
  6
Continuous
 62
         7
100
AcDbCircle
 10
21.3081031823
 20
80.2445790635
 30
0.0
 40
5.0915872699
100
AcDbArc
 50
69.6871180825
 51
91.3156973246
  0
ARC
  5
E4
100
AcDbEntity
  8
0
370
        15
390
0
  6
Continuous
 62
         7
100
AcDbCircle
 10
12.0117893831
 20
81.0596316315
 30
0.0
 40
10.1261414083
100
AcDbArc
 50
24.9731577878
 51
35.5862362465
  0
LINE
  5
E5
100
AcDbEntity
  8
0
370
        15
390
0
  6
Continuous
 62
         7
100
AcDbLine
 10
20.0564079894
 20
88.3068693846
 30
0.0
 11
20.2467784628
 21
86.9523130821
 31
0.0
  0
ARC
  5
E6
100
AcDbEntity
  8
0
370
        15
390
0
  6
Continuous
 62
         7
100
AcDbCircle
 10
20.0254244101
 20
88.3025149266
 30
0.0
 40
0.0312880726
100
AcDbArc
 50
8.0
 51
188.0
  0
LINE
  5
E7
100
AcDbEntity
  8
0
370
        15
390
0
  6
Continuous
 62
         7
100
AcDbLine
 10
20.1684072071
 20
87.0603253825
 30
0.0
 11
19.9944408309
 21
88.2981604685
 31
0.0
  0
ARC
  5
E8
100
AcDbEntity
  8
0
370
        15
390
0
  6
Continuous
 62
         7
100
AcDbCircle
 10
12.0117893831
 20
81.0596316315
 30
0.0
 40
10.1261414083
100
AcDbArc
 50
36.3413250449
 51
68.2992536016
  0
LINE
  5
E9
100
AcDbEntity
  8
0
370
        15
390
0
  6
Continuous
 62
         7
100
AcDbLine
 10
15.0270401424
 20
91.6222987496
 30
0.0
 11
15.7560198981
 21
90.4681106622
 31
0.0
  0
ARC
  5
EA
100
AcDbEntity
  8
0
370
        15
390
0
  6
Continuous
 62
         7
100
AcDbCircle
 10
14.9957288486
 20
91.6025226841
 30
0.0
 40
0.0370336318
100
AcDbArc
 50
32.2763135274
 51
212.2763135274
  0
LINE
  5
EB
100
AcDbEntity
  8
0
370
        15
390
0
  6
Continuous
 62
         7
100
AcDbLine
 10
15.639703529
 20
90.5135714859
 30
0.0
 11
14.9644175548
 21
91.5827466185
 31
0.0
  0
ARC
  5
EC
100
AcDbEntity
  8
0
370
        15
390
0
  6
Continuous
 62
         7
100
AcDbCircle
 10
12.0117893831
 20
81.0596316315
 30
0.0
 40
10.1261414083
100
AcDbArc
 50
69.0058811666
 51
104.4417882712
  0
LINE
  5
ED
100
AcDbEntity
  8
0
370
        15
390
0
  6
Continuous
 62
         7
100
AcDbLine
 10
9.4863676866
 20
90.8658023966
 30
0.0
 11
8.6580439264
 21
91.4845036738
 31
0.0
  0
ARC
  5
EE
100
AcDbEntity
  8
0
370
        15
390
0
  6
Continuous
 62
         7
100
AcDbCircle
 10
8.6293519077
 20
91.4460904981
 30
0.0
 40
0.0479458445
100
AcDbArc
 50
53.2427804467
 51
233.2427804467
  0
LINE
  5
EF
100
AcDbEntity
  8
0
370
        15
390
0
  6
Continuous
 62
         7
100
AcDbLine
 10
8.6006598889
 20
91.4076773224
 30
0.0
 11
9.3679726204
 21
90.8345471168
 31
0.0
  0
ARC
  5
F0
100
AcDbEntity
  8
0
370
        15
390
0
  6
Continuous
 62
         7
100
AcDbCircle
 10
12.0117893831
 20
81.0596316315
 30
0.0
 40
10.1261414083
100
AcDbArc
 50
105.1346461502
 51
135.7414308019
  0
LINE
  5
F1
100
AcDbEntity
  8
0
370
        15
390
0
  6
Continuous
 62
         7
100
AcDbLine
 10
3.9235454542
 20
88.4247612453
 30
0.0
 11
4.7594714789
 21
88.1266412421
 31
0.0
  0
ARC
  5
F2
100
AcDbEntity
  8
0
370
        15
390
0
  6
Continuous
 62
         7
100
AcDbCircle
 10
3.8990915115
 20
88.3561925919
 30
0.0
 40
0.0727987331
100
AcDbArc
 50
70.3720153888
 51
250.3720153888
  0
LINE
  5
F3
100
AcDbEntity
  8
0
370
        15
390
0
  6
Continuous
 62
         7
100
AcDbLine
 10
4.6489918836
 20
88.0114625272
 30
0.0
 11
3.8746375687
 21
88.2876239386
 31
0.0
  0
ARC
  5
F4
100
AcDbEntity
  8
0
370
        15
390
0
  6
Continuous
 62
         7
100
AcDbCircle
 10
12.0117893831
 20
81.0596316315
 30
0.0
 40
10.1261414083
100
AcDbArc
 50
136.6444845869
 51
151.69003902
  0
LINE
  5
F5
100
AcDbEntity
  8
0
370
        15
390
0
  6
Continuous
 62
         7
100
AcDbLine
 10
2.077899355
 20
84.3748243018
 30
0.0
 11
3.0967859375
 21
85.8618658391
 31
0.0
  0
ARC
  5
F6
100
AcDbEntity
  8
0
370
        15
390
0
  6
Continuous
 62
         7
100
AcDbCircle
 10
12.0117893831
 20
81.0596316315
 30
0.0
 40
11.7511414083
100
AcDbArc
 50
19.6929541157
 51
151.9498888875
  0
LINE
  5
F7
100
AcDbEntity
  8
0
370
        15
390
0
  6
Continuous
 62
         7
100
AcDbLine
 10
1.9416769786
 20
81.0244198842
 30
0.0
 11
2.0654604872
 21
81.0418165218
 31
0.0
  0
LINE
  5
F8
100
AcDbEntity
  8
0
370
        15
390
0
  6
Continuous
 62
         7
100
AcDbLine
 10
1.6285375014
 20
83.2525230388
 30
0.0
 11
1.9416769786
 21
81.0244198842
 31
0.0
  0
ARC
  5
F9
100
AcDbEntity
  8
0
370
        15
390
0
  6
Continuous
 62
         7
100
AcDbCircle
 10
21.2956643144
 20
76.9115712835
 30
0.0
 40
5.0915872699
100
AcDbArc
 50
69.6871180825
 51
91.3156973246
  0
ARC
  5
FA
100
AcDbEntity
  8
0
370
        15
390
0
  6
Continuous
 62
         7
100
AcDbCircle
 10
11.9993505153
 20
77.7266238515
 30
0.0
 40
10.1261414083
100
AcDbArc
 50
24.9731577878
 51
35.5862362465
  0
LINE
  5
FB
100
AcDbEntity
  8
0
370
        15
390
0
  6
Continuous
 62
         7
100
AcDbLine
 10
20.0439691215
 20
84.9738616047
 30
0.0
 11
20.2343395949
 21
83.6193053021
 31
0.0
  0
ARC
  5
FC
100
AcDbEntity
  8
0
370
        15
390
0
  6
Continuous
 62
         7
100
AcDbCircle
 10
20.0129855423
 20
84.9695071466
 30
0.0
 40
0.0312880726
100
AcDbArc
 50
8.0
 51
188.0
  0
LINE
  5
FD
100
AcDbEntity
  8
0
370
        15
390
0
  6
Continuous
 62
         7
100
AcDbLine
 10
20.1559683392
 20
83.7273176026
 30
0.0
 11
19.982001963
 21
84.9651526885
 31
0.0
  0
ARC
  5
FE
100
AcDbEntity
  8
0
370
        15
390
0
  6
Continuous
 62
         7
100
AcDbCircle
 10
11.9993505153
 20
77.7266238515
 30
0.0
 40
10.1261414083
100
AcDbArc
 50
36.3413250449
 51
68.2992536016
  0
LINE
  5
FF
100
AcDbEntity
  8
0
370
        15
390
0
  6
Continuous
 62
         7
100
AcDbLine
 10
15.0146012745
 20
88.2892909697
 30
0.0
 11
15.7435810303
 21
87.1351028822
 31
0.0
  0
ARC
  5
100
100
AcDbEntity
  8
0
370
        15
390
0
  6
Continuous
 62
         7
100
AcDbCircle
 10
14.9832899807
 20
88.2695149041
 30
0.0
 40
0.0370336318
100
AcDbArc
 50
32.2763135274
 51
212.2763135274
  0
LINE
  5
101
100
AcDbEntity
  8
0
370
        15
390
0
  6
Continuous
 62
         7
100
AcDbLine
 10
15.6272646612
 20
87.1805637059
 30
0.0
 11
14.951978687
 21
88.2497388385
 31
0.0
  0
ARC
  5
102
100
AcDbEntity
  8
0
370
        15
390
0
  6
Continuous
 62
         7
100
AcDbCircle
 10
11.9993505153
 20
77.7266238515
 30
0.0
 40
10.1261414083
100
AcDbArc
 50
69.0058811666
 51
104.4417882712
  0
LINE
  5
103
100
AcDbEntity
  8
0
370
        15
390
0
  6
Continuous
 62
         7
100
AcDbLine
 10
9.4739288188
 20
87.5327946167
 30
0.0
 11
8.6456050586
 21
88.1514958938
 31
0.0
  0
ARC
  5
104
100
AcDbEntity
  8
0
370
        15
390
0
  6
Continuous
 62
         7
100
AcDbCircle
 10
8.6169130398
 20
88.1130827181
 30
0.0
 40
0.0479458445
100
AcDbArc
 50
53.2427804467
 51
233.2427804467
  0
LINE
  5
105
100
AcDbEntity
  8
0
370
        15
390
0
  6
Continuous
 62
         7
100
AcDbLine
 10
8.588221021
 20
88.0746695424
 30
0.0
 11
9.3555337525
 21
87.5015393369
 31
0.0
  0
ARC
  5
106
100
AcDbEntity
  8
0
370
        15
390
0
  6
Continuous
 62
         7
100
AcDbCircle
 10
11.9993505153
 20
77.7266238515
 30
0.0
 40
10.1261414083
100
AcDbArc
 50
105.1346461502
 51
135.7414308019
  0
LINE
  5
107
100
AcDbEntity
  8
0
370
        15
390
0
  6
Continuous
 62
         7
100
AcDbLine
 10
3.9111065864
 20
85.0917534653
 30
0.0
 11
4.7470326111
 21
84.7936334621
 31
0.0
  0
ARC
  5
108
100
AcDbEntity
  8
0
370
        15
390
0
  6
Continuous
 62
         7
100
AcDbCircle
 10
3.8866526436
 20
85.023184812
 30
0.0
 40
0.0727987331
100
AcDbArc
 50
70.3720153888
 51
250.3720153888
  0
LINE
  5
109
100
AcDbEntity
  8
0
370
        15
390
0
  6
Continuous
 62
         7
100
AcDbLine
 10
4.6365530158
 20
84.6784547472
 30
0.0
 11
3.8621987009
 21
84.9546161586
 31
0.0
  0
ARC
  5
10A
100
AcDbEntity
  8
0
370
        15
390
0
  6
Continuous
 62
         7
100
AcDbCircle
 10
11.9993505153
 20
77.7266238515
 30
0.0
 40
10.1261414083
100
AcDbArc
 50
136.6444845869
 51
151.69003902
  0
LINE
  5
10B
100
AcDbEntity
  8
0
370
        15
390
0
  6
Continuous
 62
         7
100
AcDbLine
 10
2.0654604872
 20
81.0418165218
 30
0.0
 11
3.0843470697
 21
82.5288580591
 31
0.0
  0
ARC
  5
10C
100
AcDbEntity
  8
0
370
        15
390
0
  6
Continuous
 62
         7
100
AcDbCircle
 10
11.9993505153
 20
77.7266238515
 30
0.0
 40
11.7511414083
100
AcDbArc
 50
19.6929541157
 51
151.9498888875
  0
LINE
  5
10D
100
AcDbEntity
  8
0
370
        15
390
0
  6
Continuous
 62
         7
100
AcDbLine
 10
1.9935529316
 20
77.2833119857
 30
0.0
 11
2.1173364402
 21
77.3007086233
 31
0.0
  0
LINE
  5
10E
100
AcDbEntity
  8
0
370
        15
390
0
  6
Continuous
 62
         7
100
AcDbLine
 10
1.6804134545
 20
79.5114151404
 30
0.0
 11
1.9935529316
 21
77.2833119857
 31
0.0
  0
ARC
  5
10F
100
AcDbEntity
  8
0
370
        15
390
0
  6
Continuous
 62
         7
100
AcDbCircle
 10
21.3475402675
 20
73.170463385
 30
0.0
 40
5.0915872699
100
AcDbArc
 50
69.6871180825
 51
91.3156973246
  0
ARC
  5
110
100
AcDbEntity
  8
0
370
        15
390
0
  6
Continuous
 62
         7
100
AcDbCircle
 10
12.0512264683
 20
73.985515953
 30
0.0
 40
10.1261414083
100
AcDbArc
 50
24.9731577878
 51
35.5862362465
  0
LINE
  5
111
100
AcDbEntity
  8
0
370
        15
390
0
  6
Continuous
 62
         7
100
AcDbLine
 10
20.0958450746
 20
81.2327537062
 30
0.0
 11
20.286215548
 21
79.8781974036
 31
0.0
  0
ARC
  5
112
100
AcDbEntity
  8
0
370
        15
390
0
  6
Continuous
 62
         7
100
AcDbCircle
 10
20.0648614953
 20
81.2283992481
 30
0.0
 40
0.0312880726
100
AcDbArc
 50
8.0
 51
188.0000000001
  0
LINE
  5
113
100
AcDbEntity
  8
0
370
        15
390
0
  6
Continuous
 62
         7
100
AcDbLine
 10
20.2078442923
 20
79.9862097041
 30
0.0
 11
20.0338779161
 21
81.22404479
 31
0.0
  0
ARC
  5
114
100
AcDbEntity
  8
0
370
        15
390
0
  6
Continuous
 62
         7
100
AcDbCircle
 10
12.0512264683
 20
73.985515953
 30
0.0
 40
10.1261414083
100
AcDbArc
 50
36.3413250449
 51
68.2992536016
  0
LINE
  5
115
100
AcDbEntity
  8
0
370
        15
390
0
  6
Continuous
 62
         7
100
AcDbLine
 10
15.0664772276
 20
84.5481830712
 30
0.0
 11
15.7954569833
 21
83.3939949837
 31
0.0
  0
ARC
  5
116
100
AcDbEntity
  8
0
370
        15
390
0
  6
Continuous
 62
         7
100
AcDbCircle
 10
15.0351659338
 20
84.5284070056
 30
0.0
 40
0.0370336318
100
AcDbArc
 50
32.2763135274
 51
212.2763135274
  0
LINE
  5
117
100
AcDbEntity
  8
0
370
        15
390
0
  6
Continuous
 62
         7
100
AcDbLine
 10
15.6791406143
 20
83.4394558074
 30
0.0
 11
15.00385464
 21
84.50863094
 31
0.0
  0
ARC
  5
118
100
AcDbEntity
  8
0
370
        15
390
0
  6
Continuous
 62
         7
100
AcDbCircle
 10
12.0512264683
 20
73.985515953
 30
0.0
 40
10.1261414083
100
AcDbArc
 50
69.0058811666
 51
104.4417882712
  0
LINE
  5
119
100
AcDbEntity
  8
0
370
        15
390
0
  6
Continuous
 62
         7
100
AcDbLine
 10
9.5258047718
 20
83.7916867182
 30
0.0
 11
8.6974810116
 21
84.4103879953
 31
0.0
  0
ARC
  5
11A
100
AcDbEntity
  8
0
370
        15
390
0
  6
Continuous
 62
         7
100
AcDbCircle
 10
8.6687889929
 20
84.3719748196
 30
0.0
 40
0.0479458445
100
AcDbArc
 50
53.2427804467
 51
233.2427804467
  0
LINE
  5
11B
100
AcDbEntity
  8
0
370
        15
390
0
  6
Continuous
 62
         7
100
AcDbLine
 10
8.6400969741
 20
84.3335616439
 30
0.0
 11
9.4074097056
 21
83.7604314384
 31
0.0
  0
ARC
  5
11C
100
AcDbEntity
  8
0
370
        15
390
0
  6
Continuous
 62
         7
100
AcDbCircle
 10
12.0512264683
 20
73.985515953
 30
0.0
 40
10.1261414083
100
AcDbArc
 50
105.1346461502
 51
135.7414308019
  0
LINE
  5
11D
100
AcDbEntity
  8
0
370
        15
390
0
  6
Continuous
 62
         7
100
AcDbLine
 10
3.9629825394
 20
81.3506455668
 30
0.0
 11
4.7989085641
 21
81.0525255637
 31
0.0
  0
ARC
  5
11E
100
AcDbEntity
  8
0
370
        15
390
0
  6
Continuous
 62
         7
100
AcDbCircle
 10
3.9385285967
 20
81.2820769135
 30
0.0
 40
0.0727987331
100
AcDbArc
 50
70.3720153888
 51
250.3720153888
  0
LINE
  5
11F
100
AcDbEntity
  8
0
370
        15
390
0
  6
Continuous
 62
         7
100
AcDbLine
 10
4.6884289689
 20
80.9373468487
 30
0.0
 11
3.9140746539
 21
81.2135082601
 31
0.0
  0
ARC
  5
120
100
AcDbEntity
  8
0
370
        15
390
0
  6
Continuous
 62
         7
100
AcDbCircle
 10
12.0512264683
 20
73.985515953
 30
0.0
 40
10.1261414083
100
AcDbArc
 50
136.6444845869
 51
151.69003902
  0
LINE
  5
121
100
AcDbEntity
  8
0
370
        15
390
0
  6
Continuous
 62
         7
100
AcDbLine
 10
2.1173364402
 20
77.3007086233
 30
0.0
 11
3.1362230227
 21
78.7877501607
 31
0.0
  0
ARC
  5
122
100
AcDbEntity
  8
0
370
        15
390
0
  6
Continuous
 62
         7
100
AcDbCircle
 10
12.0512264683
 20
73.985515953
 30
0.0
 40
11.7511414083
100
AcDbArc
 50
19.6929541157
 51
151.9498888875
  0
LINE
  5
123
100
AcDbEntity
  8
0
370
        15
390
0
  6
Continuous
 62
         7
100
AcDbLine
 10
1.9480076248
 20
73.9649932511
 30
0.0
 11
2.0717911334
 21
73.9823898887
 31
0.0
  0
LINE
  5
124
100
AcDbEntity
  8
0
370
        15
390
0
  6
Continuous
 62
         7
100
AcDbLine
 10
1.6348681477
 20
76.1930964058
 30
0.0
 11
1.9480076248
 21
73.9649932511
 31
0.0
  0
ARC
  5
125
100
AcDbEntity
  8
0
370
        15
390
0
  6
Continuous
 62
         7
100
AcDbCircle
 10
21.3019949607
 20
69.8521446504
 30
0.0
 40
5.0915872699
100
AcDbArc
 50
69.6871180825
 51
91.3156973246
  0
ARC
  5
126
100
AcDbEntity
  8
0
370
        15
390
0
  6
Continuous
 62
         7
100
AcDbCircle
 10
12.0056811615
 20
70.6671972185
 30
0.0
 40
10.1261414083
100
AcDbArc
 50
24.9731577878
 51
35.5862362465
  0
LINE
  5
127
100
AcDbEntity
  8
0
370
        15
390
0
  6
Continuous
 62
         7
100
AcDbLine
 10
20.0502997678
 20
77.9144349716
 30
0.0
 11
20.2406702412
 21
76.5598786691
 31
0.0
  0
ARC
  5
128
100
AcDbEntity
  8
0
370
        15
390
0
  6
Continuous
 62
         7
100
AcDbCircle
 10
20.0193161886
 20
77.9100805135
 30
0.0
 40
0.0312880726
100
AcDbArc
 50
8.0
 51
188.0
  0
LINE
  5
129
100
AcDbEntity
  8
0
370
        15
390
0
  6
Continuous
 62
         7
100
AcDbLine
 10
20.1622989855
 20
76.6678909695
 30
0.0
 11
19.9883326093
 21
77.9057260554
 31
0.0
  0
ARC
  5
12A
100
AcDbEntity
  8
0
370
        15
390
0
  6
Continuous
 62
         7
100
AcDbCircle
 10
12.0056811615
 20
70.6671972185
 30
0.0
 40
10.1261414083
100
AcDbArc
 50
36.3413250449
 51
68.2992536016
  0
LINE
  5
12B
100
AcDbEntity
  8
0
370
        15
390
0
  6
Continuous
 62
         7
100
AcDbLine
 10
15.0209319208
 20
81.2298643366
 30
0.0
 11
15.7499116766
 21
80.0756762492
 31
0.0
  0
ARC
  5
12C
100
AcDbEntity
  8
0
370
        15
390
0
  6
Continuous
 62
         7
100
AcDbCircle
 10
14.989620627
 20
81.210088271
 30
0.0
 40
0.0370336318
100
AcDbArc
 50
32.2763135274
 51
212.2763135274
  0
LINE
  5
12D
100
AcDbEntity
  8
0
370
        15
390
0
  6
Continuous
 62
         7
100
AcDbLine
 10
15.6335953075
 20
80.1211370728
 30
0.0
 11
14.9583093333
 21
81.1903122055
 31
0.0
  0
ARC
  5
12E
100
AcDbEntity
  8
0
370
        15
390
0
  6
Continuous
 62
         7
100
AcDbCircle
 10
12.0056811615
 20
70.6671972185
 30
0.0
 40
10.1261414083
100
AcDbArc
 50
69.0058811666
 51
104.4417882712
  0
LINE
  5
12F
100
AcDbEntity
  8
0
370
        15
390
0
  6
Continuous
 62
         7
100
AcDbLine
 10
9.480259465
 20
80.4733679836
 30
0.0
 11
8.6519357048
 21
81.0920692607
 31
0.0
  0
ARC
  5
130
100
AcDbEntity
  8
0
370
        15
390
0
  6
Continuous
 62
         7
100
AcDbCircle
 10
8.6232436861
 20
81.053656085
 30
0.0
 40
0.0479458445
100
AcDbArc
 50
53.2427804467
 51
233.2427804467
  0
LINE
  5
131
100
AcDbEntity
  8
0
370
        15
390
0
  6
Continuous
 62
         7
100
AcDbLine
 10
8.5945516673
 20
81.0152429093
 30
0.0
 11
9.3618643988
 21
80.4421127038
 31
0.0
  0
ARC
  5
132
100
AcDbEntity
  8
0
370
        15
390
0
  6
Continuous
 62
         7
100
AcDbCircle
 10
12.0056811615
 20
70.6671972185
 30
0.0
 40
10.1261414083
100
AcDbArc
 50
105.1346461502
 51
135.7414308019
  0
LINE
  5
133
100
AcDbEntity
  8
0
370
        15
390
0
  6
Continuous
 62
         7
100
AcDbLine
 10
3.9174372326
 20
78.0323268323
 30
0.0
 11
4.7533632573
 21
77.7342068291
 31
0.0
  0
ARC
  5
134
100
AcDbEntity
  8
0
370
        15
390
0
  6
Continuous
 62
         7
100
AcDbCircle
 10
3.8929832899
 20
77.9637581789
 30
0.0
 40
0.0727987331
100
AcDbArc
 50
70.3720153888
 51
250.3720153888
  0
LINE
  5
135
100
AcDbEntity
  8
0
370
        15
390
0
  6
Continuous
 62
         7
100
AcDbLine
 10
4.6428836621
 20
77.6190281141
 30
0.0
 11
3.8685293471
 21
77.8951895256
 31
0.0
  0
ARC
  5
136
100
AcDbEntity
  8
0
370
        15
390
0
  6
Continuous
 62
         7
100
AcDbCircle
 10
12.0056811615
 20
70.6671972185
 30
0.0
 40
10.1261414083
100
AcDbArc
 50
136.6444845869
 51
151.69003902
  0
LINE
  5
137
100
AcDbEntity
  8
0
370
        15
390
0
  6
Continuous
 62
         7
100
AcDbLine
 10
2.0717911334
 20
73.9823898887
 30
0.0
 11
3.0906777159
 21
75.4694314261
 31
0.0
  0
ARC
  5
138
100
AcDbEntity
  8
0
370
        15
390
0
  6
Continuous
 62
         7
100
AcDbCircle
 10
12.0056811615
 20
70.6671972185
 30
0.0
 40
11.7511414083
100
AcDbArc
 50
19.6929541157
 51
151.9498888875
  0
LINE
  5
139
100
AcDbEntity
  8
0
370
        15
390
0
  6
Continuous
 62
         7
100
AcDbLine
 10
1.9825911337
 20
70.7833104369
 30
0.0
 11
2.1063746423
 21
70.8007070745
 31
0.0
  0
LINE
  5
13A
100
AcDbEntity
  8
0
370
        15
390
0
  6
Continuous
 62
         7
100
AcDbLine
 10
1.6694516565
 20
73.0114135916
 30
0.0
 11
1.9825911337
 21
70.7833104369
 31
0.0
  0
ARC
  5
13B
100
AcDbEntity
  8
0
370
        15
390
0
  6
Continuous
 62
         7
100
AcDbCircle
 10
21.3365784696
 20
66.6704618362
 30
0.0
 40
5.0915872699
100
AcDbArc
 50
69.6871180825
 51
91.3156973246
  0
ARC
  5
13C
100
AcDbEntity
  8
0
370
        15
390
0
  6
Continuous
 62
         7
100
AcDbCircle
 10
12.0402646704
 20
67.4855144043
 30
0.0
 40
10.1261414083
100
AcDbArc
 50
24.9731577878
 51
35.5862362465
  0
LINE
  5
13D
100
AcDbEntity
  8
0
370
        15
390
0
  6
Continuous
 62
         7
100
AcDbLine
 10
20.0848832766
 20
74.7327521574
 30
0.0
 11
20.2752537501
 21
73.3781958549
 31
0.0
  0
ARC
  5
13E
100
AcDbEntity
  8
0
370
        15
390
0
  6
Continuous
 62
         7
100
AcDbCircle
 10
20.0538996974
 20
74.7283976993
 30
0.0
 40
0.0312880726
100
AcDbArc
 50
8.0
 51
188.0
  0
LINE
  5
13F
100
AcDbEntity
  8
0
370
        15
390
0
  6
Continuous
 62
         7
100
AcDbLine
 10
20.1968824944
 20
73.4862081553
 30
0.0
 11
20.0229161182
 21
74.7240432412
 31
0.0
  0
ARC
  5
140
100
AcDbEntity
  8
0
370
        15
390
0
  6
Continuous
 62
         7
100
AcDbCircle
 10
12.0402646704
 20
67.4855144043
 30
0.0
 40
10.1261414083
100
AcDbArc
 50
36.3413250449
 51
68.2992536016
  0
LINE
  5
141
100
AcDbEntity
  8
0
370
        15
390
0
  6
Continuous
 62
         7
100
AcDbLine
 10
15.0555154296
 20
78.0481815224
 30
0.0
 11
15.7844951854
 21
76.893993435
 31
0.0
  0
ARC
  5
142
100
AcDbEntity
  8
0
370
        15
390
0
  6
Continuous
 62
         7
100
AcDbCircle
 10
15.0242041359
 20
78.0284054569
 30
0.0
 40
0.0370336318
100
AcDbArc
 50
32.2763135274
 51
212.2763135274
  0
LINE
  5
143
100
AcDbEntity
  8
0
370
        15
390
0
  6
Continuous
 62
         7
100
AcDbLine
 10
15.6681788163
 20
76.9394542586
 30
0.0
 11
14.9928928421
 21
78.0086293913
 31
0.0
  0
ARC
  5
144
100
AcDbEntity
  8
0
370
        15
390
0
  6
Continuous
 62
         7
100
AcDbCircle
 10
12.0402646704
 20
67.4855144043
 30
0.0
 40
10.1261414083
100
AcDbArc
 50
69.0058811666
 51
104.4417882712
  0
LINE
  5
145
100
AcDbEntity
  8
0
370
        15
390
0
  6
Continuous
 62
         7
100
AcDbLine
 10
9.5148429739
 20
77.2916851694
 30
0.0
 11
8.6865192137
 21
77.9103864465
 31
0.0
  0
ARC
  5
146
100
AcDbEntity
  8
0
370
        15
390
0
  6
Continuous
 62
         7
100
AcDbCircle
 10
8.6578271949
 20
77.8719732708
 30
0.0
 40
0.0479458445
100
AcDbArc
 50
53.2427804467
 51
233.2427804467
  0
LINE
  5
147
100
AcDbEntity
  8
0
370
        15
390
0
  6
Continuous
 62
         7
100
AcDbLine
 10
8.6291351762
 20
77.8335600951
 30
0.0
 11
9.3964479077
 21
77.2604298896
 31
0.0
  0
ARC
  5
148
100
AcDbEntity
  8
0
370
        15
390
0
  6
Continuous
 62
         7
100
AcDbCircle
 10
12.0402646704
 20
67.4855144043
 30
0.0
 40
10.1261414083
100
AcDbArc
 50
105.1346461502
 51
135.7414308019
  0
LINE
  5
149
100
AcDbEntity
  8
0
370
        15
390
0
  6
Continuous
 62
         7
100
AcDbLine
 10
3.9520207415
 20
74.8506440181
 30
0.0
 11
4.7879467662
 21
74.5525240149
 31
0.0
  0
ARC
  5
14A
100
AcDbEntity
  8
0
370
        15
390
0
  6
Continuous
 62
         7
100
AcDbCircle
 10
3.9275667987
 20
74.7820753647
 30
0.0
 40
0.0727987331
100
AcDbArc
 50
70.3720153888
 51
250.3720153888
  0
LINE
  5
14B
100
AcDbEntity
  8
0
370
        15
390
0
  6
Continuous
 62
         7
100
AcDbLine
 10
4.6774671709
 20
74.4373452999
 30
0.0
 11
3.903112856
 21
74.7135067114
 31
0.0
  0
ARC
  5
14C
100
AcDbEntity
  8
0
370
        15
390
0
  6
Continuous
 62
         7
100
AcDbCircle
 10
12.0402646704
 20
67.4855144043
 30
0.0
 40
10.1261414083
100
AcDbArc
 50
136.6444845869
 51
151.69003902
  0
LINE
  5
14D
100
AcDbEntity
  8
0
370
        15
390
0
  6
Continuous
 62
         7
100
AcDbLine
 10
2.1063746423
 20
70.8007070745
 30
0.0
 11
3.1252612248
 21
72.2877486119
 31
0.0
  0
ARC
  5
14E
100
AcDbEntity
  8
0
370
        15
390
0
  6
Continuous
 62
         7
100
AcDbCircle
 10
12.0402646704
 20
67.4855144043
 30
0.0
 40
11.7511414083
100
AcDbArc
 50
19.6929541157
 51
151.9498888875
  0
LINE
  5
14F
100
AcDbEntity
  8
0
370
        15
390
0
  6
Continuous
 62
         7
100
AcDbLine
 10
2.0235114035
 20
67.5210431079
 30
0.0
 11
2.1472949121
 21
67.5384397455
 31
0.0
  0
LINE
  5
150
100
AcDbEntity
  8
0
370
        15
390
0
  6
Continuous
 62
         7
100
AcDbLine
 10
1.7103719263
 20
69.7491462625
 30
0.0
 11
2.0235114035
 21
67.5210431079
 31
0.0
  0
ARC
  5
151
100
AcDbEntity
  8
0
370
        15
390
0
  6
Continuous
 62
         7
100
AcDbCircle
 10
21.3774987394
 20
63.4081945072
 30
0.0
 40
5.0915872699
100
AcDbArc
 50
69.6871180825
 51
91.3156973246
  0
ARC
  5
152
100
AcDbEntity
  8
0
370
        15
390
0
  6
Continuous
 62
         7
100
AcDbCircle
 10
12.0811849402
 20
64.2232470752
 30
0.0
 40
10.1261414083
100
AcDbArc
 50
24.9731577878
 51
35.5862362465
  0
LINE
  5
153
100
AcDbEntity
  8
0
370
        15
390
0
  6
Continuous
 62
         7
100
AcDbLine
 10
20.1258035465
 20
71.4704848284
 30
0.0
 11
20.3161740199
 21
70.1159285258
 31
0.0
  0
ARC
  5
154
100
AcDbEntity
  8
0
370
        15
390
0
  6
Continuous
 62
         7
100
AcDbCircle
 10
20.0948199672
 20
71.4661303703
 30
0.0
 40
0.0312880726
100
AcDbArc
 50
8.0000000001
 51
188.0
  0
LINE
  5
155
100
AcDbEntity
  8
0
370
        15
390
0
  6
Continuous
 62
         7
100
AcDbLine
 10
20.2378027642
 20
70.2239408263
 30
0.0
 11
20.063836388
 21
71.4617759122
 31
0.0
  0
ARC
  5
156
100
AcDbEntity
  8
0
370
        15
390
0
  6
Continuous
 62
         7
100
AcDbCircle
 10
12.0811849402
 20
64.2232470752
 30
0.0
 40
10.1261414083
100
AcDbArc
 50
36.3413250449
 51
68.2992536016
  0
LINE
  5
157
100
AcDbEntity
  8
0
370
        15
390
0
  6
Continuous
 62
         7
100
AcDbLine
 10
15.0964356995
 20
74.7859141934
 30
0.0
 11
15.8254154552
 21
73.6317261059
 31
0.0
  0
ARC
  5
158
100
AcDbEntity
  8
0
370
        15
390
0
  6
Continuous
 62
         7
100
AcDbCircle
 10
15.0651244057
 20
74.7661381278
 30
0.0
 40
0.0370336318
100
AcDbArc
 50
32.2763135274
 51
212.2763135274
  0
LINE
  5
159
100
AcDbEntity
  8
0
370
        15
390
0
  6
Continuous
 62
         7
100
AcDbLine
 10
15.7090990861
 20
73.6771869296
 30
0.0
 11
15.0338131119
 21
74.7463620622
 31
0.0
  0
ARC
  5
15A
100
AcDbEntity
  8
0
370
        15
390
0
  6
Continuous
 62
         7
100
AcDbCircle
 10
12.0811849402
 20
64.2232470752
 30
0.0
 40
10.1261414083
100
AcDbArc
 50
69.0058811666
 51
104.4417882712
  0
LINE
  5
15B
100
AcDbEntity
  8
0
370
        15
390
0
  6
Continuous
 62
         7
100
AcDbLine
 10
9.5557632437
 20
74.0294178404
 30
0.0
 11
8.7274394835
 21
74.6481191175
 31
0.0
  0
ARC
  5
15C
100
AcDbEntity
  8
0
370
        15
390
0
  6
Continuous
 62
         7
100
AcDbCircle
 10
8.6987474648
 20
74.6097059418
 30
0.0
 40
0.0479458445
100
AcDbArc
 50
53.2427804467
 51
233.2427804467
  0
LINE
  5
15D
100
AcDbEntity
  8
0
370
        15
390
0
  6
Continuous
 62
         7
100
AcDbLine
 10
8.670055446
 20
74.5712927661
 30
0.0
 11
9.4373681775
 21
73.9981625606
 31
0.0
  0
ARC
  5
15E
100
AcDbEntity
  8
0
370
        15
390
0
  6
Continuous
 62
         7
100
AcDbCircle
 10
12.0811849402
 20
64.2232470752
 30
0.0
 40
10.1261414083
100
AcDbArc
 50
105.1346461502
 51
135.7414308019
  0
LINE
  5
15F
100
AcDbEntity
  8
0
370
        15
390
0
  6
Continuous
 62
         7
100
AcDbLine
 10
3.9929410113
 20
71.588376689
 30
0.0
 11
4.828867036
 21
71.2902566858
 31
0.0
  0
ARC
  5
160
100
AcDbEntity
  8
0
370
        15
390
0
  6
Continuous
 62
         7
100
AcDbCircle
 10
3.9684870686
 20
71.5198080357
 30
0.0
 40
0.0727987331
100
AcDbArc
 50
70.3720153888
 51
250.3720153888
  0
LINE
  5
161
100
AcDbEntity
  8
0
370
        15
390
0
  6
Continuous
 62
         7
100
AcDbLine
 10
4.7183874407
 20
71.1750779709
 30
0.0
 11
3.9440331258
 21
71.4512393823
 31
0.0
  0
ARC
  5
162
100
AcDbEntity
  8
0
370
        15
390
0
  6
Continuous
 62
         7
100
AcDbCircle
 10
12.0811849402
 20
64.2232470752
 30
0.0
 40
10.1261414083
100
AcDbArc
 50
136.6444845869
 51
151.69003902
  0
LINE
  5
163
100
AcDbEntity
  8
0
370
        15
390
0
  6
Continuous
 62
         7
100
AcDbLine
 10
2.1472949121
 20
67.5384397455
 30
0.0
 11
3.1661814946
 21
69.0254812829
 31
0.0
  0
ARC
  5
164
100
AcDbEntity
  8
0
370
        15
390
0
  6
Continuous
 62
         7
100
AcDbCircle
 10
12.0811849402
 20
64.2232470752
 30
0.0
 40
11.7511414083
100
AcDbArc
 50
19.6929541157
 51
151.9498888875
  0
LINE
  5
165
100
AcDbEntity
  8
0
370
        15
390
0
  6
Continuous
 62
         7
100
AcDbLine
 10
2.0110725357
 20
64.1880353279
 30
0.0
 11
2.1348560442
 21
64.2054319655
 31
0.0
  0
LINE
  5
166
100
AcDbEntity
  8
0
370
        15
390
0
  6
Continuous
 62
         7
100
AcDbLine
 10
1.6979330585
 20
66.4161384826
 30
0.0
 11
2.0110725357
 21
64.1880353279
 31
0.0
  0
ARC
  5
167
100
AcDbEntity
  8
0
370
        15
390
0
  6
Continuous
 62
         7
100
AcDbCircle
 10
21.3650598715
 20
60.0751867272
 30
0.0
 40
5.0915872699
100
AcDbArc
 50
69.6871180825
 51
91.3156973246
  0
ARC
  5
168
100
AcDbEntity
  8
0
370
        15
390
0
  6
Continuous
 62
         7
100
AcDbCircle
 10
12.0687460724
 20
60.8902392952
 30
0.0
 40
10.1261414083
100
AcDbArc
 50
24.9731577878
 51
35.5862362465
  0
LINE
  5
169
100
AcDbEntity
  8
0
370
        15
390
0
  6
Continuous
 62
         7
100
AcDbLine
 10
20.1133646786
 20
68.1374770484
 30
0.0
 11
20.303735152
 21
66.7829207458
 31
0.0
  0
ARC
  5
16A
100
AcDbEntity
  8
0
370
        15
390
0
  6
Continuous
 62
         7
100
AcDbCircle
 10
20.0823810994
 20
68.1331225903
 30
0.0
 40
0.0312880726
100
AcDbArc
 50
8.0
 51
188.0
  0
LINE
  5
16B
100
AcDbEntity
  8
0
370
        15
390
0
  6
Continuous
 62
         7
100
AcDbLine
 10
20.2253638963
 20
66.8909330463
 30
0.0
 11
20.0513975201
 21
68.1287681322
 31
0.0
  0
ARC
  5
16C
100
AcDbEntity
  8
0
370
        15
390
0
  6
Continuous
 62
         7
100
AcDbCircle
 10
12.0687460724
 20
60.8902392952
 30
0.0
 40
10.1261414083
100
AcDbArc
 50
36.3413250449
 51
68.2992536016
  0
LINE
  5
16D
100
AcDbEntity
  8
0
370
        15
390
0
  6
Continuous
 62
         7
100
AcDbLine
 10
15.0839968316
 20
71.4529064134
 30
0.0
 11
15.8129765874
 21
70.2987183259
 31
0.0
  0
ARC
  5
16E
100
AcDbEntity
  8
0
370
        15
390
0
  6
Continuous
 62
         7
100
AcDbCircle
 10
15.0526855378
 20
71.4331303478
 30
0.0
 40
0.0370336318
100
AcDbArc
 50
32.2763135274
 51
212.2763135274
  0
LINE
  5
16F
100
AcDbEntity
  8
0
370
        15
390
0
  6
Continuous
 62
         7
100
AcDbLine
 10
15.6966602183
 20
70.3441791496
 30
0.0
 11
15.0213742441
 21
71.4133542823
 31
0.0
  0
ARC
  5
170
100
AcDbEntity
  8
0
370
        15
390
0
  6
Continuous
 62
         7
100
AcDbCircle
 10
12.0687460724
 20
60.8902392952
 30
0.0
 40
10.1261414083
100
AcDbArc
 50
69.0058811666
 51
104.4417882712
  0
LINE
  5
171
100
AcDbEntity
  8
0
370
        15
390
0
  6
Continuous
 62
         7
100
AcDbLine
 10
9.5433243759
 20
70.6964100604
 30
0.0
 11
8.7150006157
 21
71.3151113375
 31
0.0
  0
ARC
  5
172
100
AcDbEntity
  8
0
370
        15
390
0
  6
Continuous
 62
         7
100
AcDbCircle
 10
8.6863085969
 20
71.2766981618
 30
0.0
 40
0.0479458445
100
AcDbArc
 50
53.2427804467
 51
233.2427804467
  0
LINE
  5
173
100
AcDbEntity
  8
0
370
        15
390
0
  6
Continuous
 62
         7
100
AcDbLine
 10
8.6576165781
 20
71.2382849861
 30
0.0
 11
9.4249293096
 21
70.6651547806
 31
0.0
  0
ARC
  5
174
100
AcDbEntity
  8
0
370
        15
390
0
  6
Continuous
 62
         7
100
AcDbCircle
 10
12.0687460724
 20
60.8902392952
 30
0.0
 40
10.1261414083
100
AcDbArc
 50
105.1346461502
 51
135.7414308019
  0
LINE
  5
175
100
AcDbEntity
  8
0
370
        15
390
0
  6
Continuous
 62
         7
100
AcDbLine
 10
3.9805021435
 20
68.255368909
 30
0.0
 11
4.8164281682
 21
67.9572489059
 31
0.0
  0
ARC
  5
176
100
AcDbEntity
  8
0
370
        15
390
0
  6
Continuous
 62
         7
100
AcDbCircle
 10
3.9560482007
 20
68.1868002557
 30
0.0
 40
0.0727987331
100
AcDbArc
 50
70.3720153888
 51
250.3720153888
  0
LINE
  5
177
100
AcDbEntity
  8
0
370
        15
390
0
  6
Continuous
 62
         7
100
AcDbLine
 10
4.7059485729
 20
67.8420701909
 30
0.0
 11
3.931594258
 21
68.1182316023
 31
0.0
  0
ARC
  5
178
100
AcDbEntity
  8
0
370
        15
390
0
  6
Continuous
 62
         7
100
AcDbCircle
 10
12.0687460724
 20
60.8902392952
 30
0.0
 40
10.1261414083
100
AcDbArc
 50
136.6444845869
 51
151.69003902
  0
LINE
  5
179
100
AcDbEntity
  8
0
370
        15
390
0
  6
Continuous
 62
         7
100
AcDbLine
 10
2.1348560442
 20
64.2054319655
 30
0.0
 11
3.1537426268
 21
65.6924735029
 31
0.0
  0
ARC
  5
17A
100
AcDbEntity
  8
0
370
        15
390
0
  6
Continuous
 62
         7
100
AcDbCircle
 10
12.0687460724
 20
60.8902392952
 30
0.0
 40
11.7511414083
100
AcDbArc
 50
19.6929541157
 51
151.9498888875
  0
LINE
  5
17B
100
AcDbEntity
  8
0
370
        15
390
0
  6
Continuous
 62
         7
100
AcDbLine
 10
2.0673351213
 20
60.6593769383
 30
0.0
 11
2.1911186299
 21
60.6767735759
 31
0.0
  0
LINE
  5
17C
100
AcDbEntity
  8
0
370
        15
390
0
  6
Continuous
 62
         7
100
AcDbLine
 10
1.7541956441
 20
62.8874800929
 30
0.0
 11
2.0673351213
 21
60.6593769383
 31
0.0
  0
ARC
  5
17D
100
AcDbEntity
  8
0
370
        15
390
0
  6
Continuous
 62
         7
100
AcDbCircle
 10
21.4213224572
 20
56.5465283376
 30
0.0
 40
5.0915872699
100
AcDbArc
 50
69.6871180825
 51
91.3156973246
  0
ARC
  5
17E
100
AcDbEntity
  8
0
370
        15
390
0
  6
Continuous
 62
         7
100
AcDbCircle
 10
12.125008658
 20
57.3615809056
 30
0.0
 40
10.1261414083
100
AcDbArc
 50
24.9731577878
 51
35.5862362465
  0
LINE
  5
17F
100
AcDbEntity
  8
0
370
        15
390
0
  6
Continuous
 62
         7
100
AcDbLine
 10
20.1696272642
 20
64.6088186588
 30
0.0
 11
20.3599977376
 21
63.2542623562
 31
0.0
  0
ARC
  5
180
100
AcDbEntity
  8
0
370
        15
390
0
  6
Continuous
 62
         7
100
AcDbCircle
 10
20.138643685
 20
64.6044642007
 30
0.0
 40
0.0312880726
100
AcDbArc
 50
8.0
 51
188.0
  0
LINE
  5
181
100
AcDbEntity
  8
0
370
        15
390
0
  6
Continuous
 62
         7
100
AcDbLine
 10
20.281626482
 20
63.3622746567
 30
0.0
 11
20.1076601058
 21
64.6001097426
 31
0.0
  0
ARC
  5
182
100
AcDbEntity
  8
0
370
        15
390
0
  6
Continuous
 62
         7
100
AcDbCircle
 10
12.125008658
 20
57.3615809056
 30
0.0
 40
10.1261414083
100
AcDbArc
 50
36.3413250449
 51
68.2992536016
  0
LINE
  5
183
100
AcDbEntity
  8
0
370
        15
390
0
  6
Continuous
 62
         7
100
AcDbLine
 10
15.1402594172
 20
67.9242480237
 30
0.0
 11
15.869239173
 21
66.7700599363
 31
0.0
  0
ARC
  5
184
100
AcDbEntity
  8
0
370
        15
390
0
  6
Continuous
 62
         7
100
AcDbCircle
 10
15.1089481234
 20
67.9044719582
 30
0.0
 40
0.0370336318
100
AcDbArc
 50
32.2763135274
 51
212.2763135274
  0
LINE
  5
185
100
AcDbEntity
  8
0
370
        15
390
0
  6
Continuous
 62
         7
100
AcDbLine
 10
15.7529228039
 20
66.81552076
 30
0.0
 11
15.0776368297
 21
67.8846958926
 31
0.0
  0
ARC
  5
186
100
AcDbEntity
  8
0
370
        15
390
0
  6
Continuous
 62
         7
100
AcDbCircle
 10
12.125008658
 20
57.3615809056
 30
0.0
 40
10.1261414083
100
AcDbArc
 50
69.0058811666
 51
104.4417882712
  0
LINE
  5
187
100
AcDbEntity
  8
0
370
        15
390
0
  6
Continuous
 62
         7
100
AcDbLine
 10
9.5995869615
 20
67.1677516708
 30
0.0
 11
8.7712632013
 21
67.7864529479
 31
0.0
  0
ARC
  5
188
100
AcDbEntity
  8
0
370
        15
390
0
  6
Continuous
 62
         7
100
AcDbCircle
 10
8.7425711825
 20
67.7480397722
 30
0.0
 40
0.0479458445
100
AcDbArc
 50
53.2427804467
 51
233.2427804467
  0
LINE
  5
189
100
AcDbEntity
  8
0
370
        15
390
0
  6
Continuous
 62
         7
100
AcDbLine
 10
8.7138791638
 20
67.7096265965
 30
0.0
 11
9.4811918953
 21
67.1364963909
 31
0.0
  0
ARC
  5
18A
100
AcDbEntity
  8
0
370
        15
390
0
  6
Continuous
 62
         7
100
AcDbCircle
 10
12.125008658
 20
57.3615809056
 30
0.0
 40
10.1261414083
100
AcDbArc
 50
105.1346461502
 51
135.7414308019
  0
LINE
  5
18B
100
AcDbEntity
  8
0
370
        15
390
0
  6
Continuous
 62
         7
100
AcDbLine
 10
4.0367647291
 20
64.7267105194
 30
0.0
 11
4.8726907538
 21
64.4285905162
 31
0.0
  0
ARC
  5
18C
100
AcDbEntity
  8
0
370
        15
390
0
  6
Continuous
 62
         7
100
AcDbCircle
 10
4.0123107863
 20
64.6581418661
 30
0.0
 40
0.0727987331
100
AcDbArc
 50
70.3720153888
 51
250.3720153888
  0
LINE
  5
18D
100
AcDbEntity
  8
0
370
        15
390
0
  6
Continuous
 62
         7
100
AcDbLine
 10
4.7622111585
 20
64.3134118013
 30
0.0
 11
3.9878568436
 21
64.5895732127
 31
0.0
  0
ARC
  5
18E
100
AcDbEntity
  8
0
370
        15
390
0
  6
Continuous
 62
         7
100
AcDbCircle
 10
12.125008658
 20
57.3615809056
 30
0.0
 40
10.1261414083
100
AcDbArc
 50
136.6444845869
 51
151.69003902
  0
LINE
  5
18F
100
AcDbEntity
  8
0
370
        15
390
0
  6
Continuous
 62
         7
100
AcDbLine
 10
2.1911186299
 20
60.6767735759
 30
0.0
 11
3.2100052124
 21
62.1638151132
 31
0.0
  0
ARC
  5
190
100
AcDbEntity
  8
0
370
        15
390
0
  6
Continuous
 62
         7
100
AcDbCircle
 10
12.125008658
 20
57.3615809056
 30
0.0
 40
11.7511414083
100
AcDbArc
 50
19.6929541157
 51
151.9498888875
  0
LINE
  5
191
100
AcDbEntity
  8
0
370
        15
390
0
  6
Continuous
 62
         7
100
AcDbLine
 10
6.5471191921
 20
8.1463485181
 30
0.0
 11
6.6709027007
 21
8.1637451557
 31
0.0
  0
LINE
  5
192
100
AcDbEntity
  8
0
370
        15
390
0
  6
Continuous
 62
         7
100
AcDbLine
 10
6.2339797149
 20
10.3744516728
 30
0.0
 11
6.5471191921
 21
8.1463485181
 31
0.0
  0
ARC
  5
193
100
AcDbEntity
  8
0
370
        15
390
0
  6
Continuous
 62
         7
100
AcDbCircle
 10
25.901106528
 20
4.0334999174
 30
0.0
 40
5.0915872699
100
AcDbArc
 50
69.6871180825
 51
91.3156973246
  0
ARC
  5
194
100
AcDbEntity
  8
0
370
        15
390
0
  6
Continuous
 62
         7
100
AcDbCircle
 10
16.6047927288
 20
4.8485524855
 30
0.0
 40
10.1261414083
100
AcDbArc
 50
24.9731577878
 51
35.5862362465
  0
LINE
  5
195
100
AcDbEntity
  8
0
370
        15
390
0
  6
Continuous
 62
         7
100
AcDbLine
 10
24.649411335
 20
12.0957902386
 30
0.0
 11
24.8397818085
 21
10.7412339361
 31
0.0
  0
ARC
  5
196
100
AcDbEntity
  8
0
370
        15
390
0
  6
Continuous
 62
         7
100
AcDbCircle
 10
24.6184277558
 20
12.0914357805
 30
0.0
 40
0.0312880726
100
AcDbArc
 50
8.0000000001
 51
188.0
  0
LINE
  5
197
100
AcDbEntity
  8
0
370
        15
390
0
  6
Continuous
 62
         7
100
AcDbLine
 10
24.7614105528
 20
10.8492462365
 30
0.0
 11
24.5874441766
 21
12.0870813224
 31
0.0
  0
ARC
  5
198
100
AcDbEntity
  8
0
370
        15
390
0
  6
Continuous
 62
         7
100
AcDbCircle
 10
16.6047927288
 20
4.8485524855
 30
0.0
 40
10.1261414083
100
AcDbArc
 50
36.3413250449
 51
68.2992536016
  0
LINE
  5
199
100
AcDbEntity
  8
0
370
        15
390
0
  6
Continuous
 62
         7
100
AcDbLine
 10
19.620043488
 20
15.4112196036
 30
0.0
 11
20.3490232438
 21
14.2570315161
 31
0.0
  0
ARC
  5
19A
100
AcDbEntity
  8
0
370
        15
390
0
  6
Continuous
 62
         7
100
AcDbCircle
 10
19.5887321943
 20
15.391443538
 30
0.0
 40
0.0370336318
100
AcDbArc
 50
32.2763135274
 51
212.2763135274
  0
LINE
  5
19B
100
AcDbEntity
  8
0
370
        15
390
0
  6
Continuous
 62
         7
100
AcDbLine
 10
20.2327068747
 20
14.3024923398
 30
0.0
 11
19.5574209005
 21
15.3716674725
 31
0.0
  0
ARC
  5
19C
100
AcDbEntity
  8
0
370
        15
390
0
  6
Continuous
 62
         7
100
AcDbCircle
 10
16.6047927288
 20
4.8485524855
 30
0.0
 40
10.1261414083
100
AcDbArc
 50
69.0058811666
 51
104.4417882712
  0
LINE
  5
19D
100
AcDbEntity
  8
0
370
        15
390
0
  6
Continuous
 62
         7
100
AcDbLine
 10
14.0793710323
 20
14.6547232506
 30
0.0
 11
13.2510472721
 21
15.2734245277
 31
0.0
  0
ARC
  5
19E
100
AcDbEntity
  8
0
370
        15
390
0
  6
Continuous
 62
         7
100
AcDbCircle
 10
13.2223552533
 20
15.235011352
 30
0.0
 40
0.0479458445
100
AcDbArc
 50
53.2427804467
 51
233.2427804467
  0
LINE
  5
19F
100
AcDbEntity
  8
0
370
        15
390
0
  6
Continuous
 62
         7
100
AcDbLine
 10
13.1936632346
 20
15.1965981763
 30
0.0
 11
13.9609759661
 21
14.6234679708
 31
0.0
  0
ARC
  5
1A0
100
AcDbEntity
  8
0
370
        15
390
0
  6
Continuous
 62
         7
100
AcDbCircle
 10
16.6047927288
 20
4.8485524855
 30
0.0
 40
10.1261414083
100
AcDbArc
 50
105.1346461502
 51
135.7414308019
  0
LINE
  5
1A1
100
AcDbEntity
  8
0
370
        15
390
0
  6
Continuous
 62
         7
100
AcDbLine
 10
8.5165487999
 20
12.2136820993
 30
0.0
 11
9.3524748246
 21
11.9155620961
 31
0.0
  0
ARC
  5
1A2
100
AcDbEntity
  8
0
370
        15
390
0
  6
Continuous
 62
         7
100
AcDbCircle
 10
8.4920948571
 20
12.1451134459
 30
0.0
 40
0.0727987331
100
AcDbArc
 50
70.3720153888
 51
250.3720153888
  0
LINE
  5
1A3
100
AcDbEntity
  8
0
370
        15
390
0
  6
Continuous
 62
         7
100
AcDbLine
 10
9.2419952293
 20
11.8003833811
 30
0.0
 11
8.4676409144
 21
12.0765447926
 31
0.0
  0
ARC
  5
1A4
100
AcDbEntity
  8
0
370
        15
390
0
  6
Continuous
 62
         7
100
AcDbCircle
 10
16.6047927288
 20
4.8485524855
 30
0.0
 40
10.1261414083
100
AcDbArc
 50
136.6444845869
 51
151.69003902
  0
LINE
  5
1A5
100
AcDbEntity
  8
0
370
        15
390
0
  6
Continuous
 62
         7
100
AcDbLine
 10
6.6709027007
 20
8.1637451557
 30
0.0
 11
7.6897892832
 21
9.6507866931
 31
0.0
  0
ARC
  5
1A6
100
AcDbEntity
  8
0
370
        15
390
0
  6
Continuous
 62
         7
100
AcDbCircle
 10
16.6047927288
 20
4.8485524855
 30
0.0
 40
11.7511414083
100
AcDbArc
 50
19.6929541157
 51
151.9498888875
  0
LINE
  5
1A7
100
AcDbEntity
  8
0
370
        15
390
0
  6
Continuous
 62
         7
100
AcDbLine
 10
6.5817027009
 20
11.9716273209
 30
0.0
 11
6.7054862095
 21
11.9890239585
 31
0.0
  0
LINE
  5
1A8
100
AcDbEntity
  8
0
370
        15
390
0
  6
Continuous
 62
         7
100
AcDbLine
 10
6.2685632238
 20
14.1997304755
 30
0.0
 11
6.5817027009
 21
11.9716273209
 31
0.0
  0
ARC
  5
1A9
100
AcDbEntity
  8
0
370
        15
390
0
  6
Continuous
 62
         7
100
AcDbCircle
 10
25.9356900368
 20
7.8587787202
 30
0.0
 40
5.0915872699
100
AcDbArc
 50
69.6871180825
 51
91.3156973246
  0
ARC
  5
1AA
100
AcDbEntity
  8
0
370
        15
390
0
  6
Continuous
 62
         7
100
AcDbCircle
 10
16.6393762376
 20
8.6738312882
 30
0.0
 40
10.1261414083
100
AcDbArc
 50
24.9731577878
 51
35.5862362465
  0
LINE
  5
1AB
100
AcDbEntity
  8
0
370
        15
390
0
  6
Continuous
 62
         7
100
AcDbLine
 10
24.6839948439
 20
15.9210690414
 30
0.0
 11
24.8743653173
 21
14.5665127388
 31
0.0
  0
ARC
  5
1AC
100
AcDbEntity
  8
0
370
        15
390
0
  6
Continuous
 62
         7
100
AcDbCircle
 10
24.6530112647
 20
15.9167145833
 30
0.0
 40
0.0312880726
100
AcDbArc
 50
8.0
 51
188.0
  0
LINE
  5
1AD
100
AcDbEntity
  8
0
370
        15
390
0
  6
Continuous
 62
         7
100
AcDbLine
 10
24.7959940616
 20
14.6745250393
 30
0.0
 11
24.6220276854
 21
15.9123601252
 31
0.0
  0
ARC
  5
1AE
100
AcDbEntity
  8
0
370
        15
390
0
  6
Continuous
 62
         7
100
AcDbCircle
 10
16.6393762376
 20
8.6738312882
 30
0.0
 40
10.1261414083
100
AcDbArc
 50
36.3413250449
 51
68.2992536016
  0
LINE
  5
1AF
100
AcDbEntity
  8
0
370
        15
390
0
  6
Continuous
 62
         7
100
AcDbLine
 10
19.6546269969
 20
19.2364984063
 30
0.0
 11
20.3836067527
 21
18.0823103189
 31
0.0
  0
ARC
  5
1B0
100
AcDbEntity
  8
0
370
        15
390
0
  6
Continuous
 62
         7
100
AcDbCircle
 10
19.6233157031
 20
19.2167223408
 30
0.0
 40
0.0370336318
100
AcDbArc
 50
32.2763135274
 51
212.2763135274
  0
LINE
  5
1B1
100
AcDbEntity
  8
0
370
        15
390
0
  6
Continuous
 62
         7
100
AcDbLine
 10
20.2672903836
 20
18.1277711426
 30
0.0
 11
19.5920044094
 21
19.1969462752
 31
0.0
  0
ARC
  5
1B2
100
AcDbEntity
  8
0
370
        15
390
0
  6
Continuous
 62
         7
100
AcDbCircle
 10
16.6393762376
 20
8.6738312882
 30
0.0
 40
10.1261414083
100
AcDbArc
 50
69.0058811666
 51
104.4417882712
  0
LINE
  5
1B3
100
AcDbEntity
  8
0
370
        15
390
0
  6
Continuous
 62
         7
100
AcDbLine
 10
14.1139545411
 20
18.4800020533
 30
0.0
 11
13.2856307809
 21
19.0987033305
 31
0.0
  0
ARC
  5
1B4
100
AcDbEntity
  8
0
370
        15
390
0
  6
Continuous
 62
         7
100
AcDbCircle
 10
13.2569387622
 20
19.0602901548
 30
0.0
 40
0.0479458445
100
AcDbArc
 50
53.2427804467
 51
233.2427804467
  0
LINE
  5
1B5
100
AcDbEntity
  8
0
370
        15
390
0
  6
Continuous
 62
         7
100
AcDbLine
 10
13.2282467434
 20
19.0218769791
 30
0.0
 11
13.9955594749
 21
18.4487467735
 31
0.0
  0
ARC
  5
1B6
100
AcDbEntity
  8
0
370
        15
390
0
  6
Continuous
 62
         7
100
AcDbCircle
 10
16.6393762376
 20
8.6738312882
 30
0.0
 40
10.1261414083
100
AcDbArc
 50
105.1346461502
 51
135.7414308019
  0
LINE
  5
1B7
100
AcDbEntity
  8
0
370
        15
390
0
  6
Continuous
 62
         7
100
AcDbLine
 10
8.5511323087
 20
16.038960902
 30
0.0
 11
9.3870583334
 21
15.7408408988
 31
0.0
  0
ARC
  5
1B8
100
AcDbEntity
  8
0
370
        15
390
0
  6
Continuous
 62
         7
100
AcDbCircle
 10
8.526678366
 20
15.9703922486
 30
0.0
 40
0.0727987331
100
AcDbArc
 50
70.3720153888
 51
250.3720153888
  0
LINE
  5
1B9
100
AcDbEntity
  8
0
370
        15
390
0
  6
Continuous
 62
         7
100
AcDbLine
 10
9.2765787382
 20
15.6256621839
 30
0.0
 11
8.5022244232
 21
15.9018235953
 31
0.0
  0
ARC
  5
1BA
100
AcDbEntity
  8
0
370
        15
390
0
  6
Continuous
 62
         7
100
AcDbCircle
 10
16.6393762376
 20
8.6738312882
 30
0.0
 40
10.1261414083
100
AcDbArc
 50
136.6444845869
 51
151.69003902
  0
LINE
  5
1BB
100
AcDbEntity
  8
0
370
        15
390
0
  6
Continuous
 62
         7
100
AcDbLine
 10
6.7054862095
 20
11.9890239585
 30
0.0
 11
7.724372792
 21
13.4760654958
 31
0.0
  0
ARC
  5
1BC
100
AcDbEntity
  8
0
370
        15
390
0
  6
Continuous
 62
         7
100
AcDbCircle
 10
16.6393762376
 20
8.6738312882
 30
0.0
 40
11.7511414083
100
AcDbArc
 50
19.6929541157
 51
151.9498888875
  0
LINE
  5
1BD
100
AcDbEntity
  8
0
370
        15
390
0
  6
Continuous
 62
         7
100
AcDbLine
 10
6.3306662367
 20
15.8622999758
 30
0.0
 11
6.4544497453
 21
15.8796966134
 31
0.0
  0
LINE
  5
1BE
100
AcDbEntity
  8
0
370
        15
390
0
  6
Continuous
 62
         7
100
AcDbLine
 10
6.0175267596
 20
18.0904031304
 30
0.0
 11
6.3306662367
 21
15.8622999758
 31
0.0
  0
ARC
  5
1BF
100
AcDbEntity
  8
0
370
        15
390
0
  6
Continuous
 62
         7
100
AcDbCircle
 10
25.6846535726
 20
11.7494513751
 30
0.0
 40
5.0915872699
100
AcDbArc
 50
69.6871180825
 51
91.3156973246
  0
ARC
  5
1C0
100
AcDbEntity
  8
0
370
        15
390
0
  6
Continuous
 62
         7
100
AcDbCircle
 10
16.3883397734
 20
12.5645039431
 30
0.0
 40
10.1261414083
100
AcDbArc
 50
24.9731577878
 51
35.5862362465
  0
LINE
  5
1C1
100
AcDbEntity
  8
0
370
        15
390
0
  6
Continuous
 62
         7
100
AcDbLine
 10
24.4329583797
 20
19.8117416963
 30
0.0
 11
24.6233288531
 21
18.4571853937
 31
0.0
  0
ARC
  5
1C2
100
AcDbEntity
  8
0
370
        15
390
0
  6
Continuous
 62
         7
100
AcDbCircle
 10
24.4019748004
 20
19.8073872382
 30
0.0
 40
0.0312880726
100
AcDbArc
 50
8.0
 51
188.0
  0
LINE
  5
1C3
100
AcDbEntity
  8
0
370
        15
390
0
  6
Continuous
 62
         7
100
AcDbLine
 10
24.5449575974
 20
18.5651976942
 30
0.0
 11
24.3709912212
 21
19.8030327801
 31
0.0
  0
ARC
  5
1C4
100
AcDbEntity
  8
0
370
        15
390
0
  6
Continuous
 62
         7
100
AcDbCircle
 10
16.3883397734
 20
12.5645039431
 30
0.0
 40
10.1261414083
100
AcDbArc
 50
36.3413250449
 51
68.2992536016
  0
LINE
  5
1C5
100
AcDbEntity
  8
0
370
        15
390
0
  6
Continuous
 62
         7
100
AcDbLine
 10
19.4035905327
 20
23.1271710613
 30
0.0
 11
20.1325702884
 21
21.9729829738
 31
0.0
  0
ARC
  5
1C6
100
AcDbEntity
  8
0
370
        15
390
0
  6
Continuous
 62
         7
100
AcDbCircle
 10
19.3722792389
 20
23.1073949957
 30
0.0
 40
0.0370336318
100
AcDbArc
 50
32.2763135274
 51
212.2763135274
  0
LINE
  5
1C7
100
AcDbEntity
  8
0
370
        15
390
0
  6
Continuous
 62
         7
100
AcDbLine
 10
20.0162539194
 20
22.0184437975
 30
0.0
 11
19.3409679451
 21
23.0876189301
 31
0.0
  0
ARC
  5
1C8
100
AcDbEntity
  8
0
370
        15
390
0
  6
Continuous
 62
         7
100
AcDbCircle
 10
16.3883397734
 20
12.5645039431
 30
0.0
 40
10.1261414083
100
AcDbArc
 50
69.0058811666
 51
104.4417882712
  0
LINE
  5
1C9
100
AcDbEntity
  8
0
370
        15
390
0
  6
Continuous
 62
         7
100
AcDbLine
 10
13.8629180769
 20
22.3706747083
 30
0.0
 11
13.0345943167
 21
22.9893759854
 31
0.0
  0
ARC
  5
1CA
100
AcDbEntity
  8
0
370
        15
390
0
  6
Continuous
 62
         7
100
AcDbCircle
 10
13.005902298
 20
22.9509628097
 30
0.0
 40
0.0479458445
100
AcDbArc
 50
53.2427804467
 51
233.2427804467
  0
LINE
  5
1CB
100
AcDbEntity
  8
0
370
        15
390
0
  6
Continuous
 62
         7
100
AcDbLine
 10
12.9772102792
 20
22.912549634
 30
0.0
 11
13.7445230107
 21
22.3394194285
 31
0.0
  0
ARC
  5
1CC
100
AcDbEntity
  8
0
370
        15
390
0
  6
Continuous
 62
         7
100
AcDbCircle
 10
16.3883397734
 20
12.5645039431
 30
0.0
 40
10.1261414083
100
AcDbArc
 50
105.1346461502
 51
135.7414308019
  0
LINE
  5
1CD
100
AcDbEntity
  8
0
370
        15
390
0
  6
Continuous
 62
         7
100
AcDbLine
 10
8.3000958445
 20
19.9296335569
 30
0.0
 11
9.1360218692
 21
19.6315135537
 31
0.0
  0
ARC
  5
1CE
100
AcDbEntity
  8
0
370
        15
390
0
  6
Continuous
 62
         7
100
AcDbCircle
 10
8.2756419018
 20
19.8610649036
 30
0.0
 40
0.0727987331
100
AcDbArc
 50
70.3720153888
 51
250.3720153888
  0
LINE
  5
1CF
100
AcDbEntity
  8
0
370
        15
390
0
  6
Continuous
 62
         7
100
AcDbLine
 10
9.025542274
 20
19.5163348388
 30
0.0
 11
8.251187959
 21
19.7924962502
 31
0.0
  0
ARC
  5
1D0
100
AcDbEntity
  8
0
370
        15
390
0
  6
Continuous
 62
         7
100
AcDbCircle
 10
16.3883397734
 20
12.5645039431
 30
0.0
 40
10.1261414083
100
AcDbArc
 50
136.6444845869
 51
151.69003902
  0
LINE
  5
1D1
100
AcDbEntity
  8
0
370
        15
390
0
  6
Continuous
 62
         7
100
AcDbLine
 10
6.4544497453
 20
15.8796966134
 30
0.0
 11
7.4733363278
 21
17.3667381507
 31
0.0
  0
ARC
  5
1D2
100
AcDbEntity
  8
0
370
        15
390
0
  6
Continuous
 62
         7
100
AcDbCircle
 10
16.3883397734
 20
12.5645039431
 30
0.0
 40
11.7511414083
100
AcDbArc
 50
19.6929541157
 51
151.9498888875
  0
LINE
  5
1D3
100
AcDbEntity
  8
0
370
        15
390
0
  6
Continuous
 62
         7
100
AcDbLine
 10
6.3182273689
 20
19.5362538127
 30
0.0
 11
6.4420108775
 21
19.5536504504
 31
0.0
  0
LINE
  5
1D4
100
AcDbEntity
  8
0
370
        15
390
0
  6
Continuous
 62
         7
100
AcDbLine
 10
6.0050878917
 20
21.7643569674
 30
0.0
 11
6.3182273689
 21
19.5362538127
 31
0.0
  0
ARC
  5
1D5
100
AcDbEntity
  8
0
370
        15
390
0
  6
Continuous
 62
         7
100
AcDbCircle
 10
25.6722147048
 20
15.423405212
 30
0.0
 40
5.0915872699
100
AcDbArc
 50
69.6871180825
 51
91.3156973246
  0
ARC
  5
1D6
100
AcDbEntity
  8
0
370
        15
390
0
  6
Continuous
 62
         7
100
AcDbCircle
 10
16.3759009056
 20
16.2384577801
 30
0.0
 40
10.1261414083
100
AcDbArc
 50
24.9731577878
 51
35.5862362465
  0
LINE
  5
1D7
100
AcDbEntity
  8
0
370
        15
390
0
  6
Continuous
 62
         7
100
AcDbLine
 10
24.4205195118
 20
23.4856955332
 30
0.0
 11
24.6108899852
 21
22.1311392307
 31
0.0
  0
ARC
  5
1D8
100
AcDbEntity
  8
0
370
        15
390
0
  6
Continuous
 62
         7
100
AcDbCircle
 10
24.3895359326
 20
23.4813410751
 30
0.0
 40
0.0312880726
100
AcDbArc
 50
8.0
 51
188.0
  0
LINE
  5
1D9
100
AcDbEntity
  8
0
370
        15
390
0
  6
Continuous
 62
         7
100
AcDbLine
 10
24.5325187296
 20
22.2391515311
 30
0.0
 11
24.3585523534
 21
23.4769866171
 31
0.0
  0
ARC
  5
1DA
100
AcDbEntity
  8
0
370
        15
390
0
  6
Continuous
 62
         7
100
AcDbCircle
 10
16.3759009056
 20
16.2384577801
 30
0.0
 40
10.1261414083
100
AcDbArc
 50
36.3413250449
 51
68.2992536016
  0
LINE
  5
1DB
100
AcDbEntity
  8
0
370
        15
390
0
  6
Continuous
 62
         7
100
AcDbLine
 10
19.3911516648
 20
26.8011248982
 30
0.0
 11
20.1201314206
 21
25.6469368108
 31
0.0
  0
ARC
  5
1DC
100
AcDbEntity
  8
0
370
        15
390
0
  6
Continuous
 62
         7
100
AcDbCircle
 10
19.359840371
 20
26.7813488327
 30
0.0
 40
0.0370336318
100
AcDbArc
 50
32.2763135274
 51
212.2763135274
  0
LINE
  5
1DD
100
AcDbEntity
  8
0
370
        15
390
0
  6
Continuous
 62
         7
100
AcDbLine
 10
20.0038150515
 20
25.6923976344
 30
0.0
 11
19.3285290773
 21
26.7615727671
 31
0.0
  0
ARC
  5
1DE
100
AcDbEntity
  8
0
370
        15
390
0
  6
Continuous
 62
         7
100
AcDbCircle
 10
16.3759009056
 20
16.2384577801
 30
0.0
 40
10.1261414083
100
AcDbArc
 50
69.0058811666
 51
104.4417882712
  0
LINE
  5
1DF
100
AcDbEntity
  8
0
370
        15
390
0
  6
Continuous
 62
         7
100
AcDbLine
 10
13.8504792091
 20
26.0446285452
 30
0.0
 11
13.0221554489
 21
26.6633298223
 31
0.0
  0
ARC
  5
1E0
100
AcDbEntity
  8
0
370
        15
390
0
  6
Continuous
 62
         7
100
AcDbCircle
 10
12.9934634301
 20
26.6249166466
 30
0.0
 40
0.0479458445
100
AcDbArc
 50
53.2427804467
 51
233.2427804467
  0
LINE
  5
1E1
100
AcDbEntity
  8
0
370
        15
390
0
  6
Continuous
 62
         7
100
AcDbLine
 10
12.9647714114
 20
26.5865034709
 30
0.0
 11
13.7320841429
 21
26.0133732654
 31
0.0
  0
ARC
  5
1E2
100
AcDbEntity
  8
0
370
        15
390
0
  6
Continuous
 62
         7
100
AcDbCircle
 10
16.3759009056
 20
16.2384577801
 30
0.0
 40
10.1261414083
100
AcDbArc
 50
105.1346461502
 51
135.7414308019
  0
LINE
  5
1E3
100
AcDbEntity
  8
0
370
        15
390
0
  6
Continuous
 62
         7
100
AcDbLine
 10
8.2876569767
 20
23.6035873939
 30
0.0
 11
9.1235830014
 21
23.3054673907
 31
0.0
  0
ARC
  5
1E4
100
AcDbEntity
  8
0
370
        15
390
0
  6
Continuous
 62
         7
100
AcDbCircle
 10
8.2632030339
 20
23.5350187405
 30
0.0
 40
0.0727987331
100
AcDbArc
 50
70.3720153888
 51
250.3720153888
  0
LINE
  5
1E5
100
AcDbEntity
  8
0
370
        15
390
0
  6
Continuous
 62
         7
100
AcDbLine
 10
9.0131034061
 20
23.1902886758
 30
0.0
 11
8.2387490912
 21
23.4664500872
 31
0.0
  0
ARC
  5
1E6
100
AcDbEntity
  8
0
370
        15
390
0
  6
Continuous
 62
         7
100
AcDbCircle
 10
16.3759009056
 20
16.2384577801
 30
0.0
 40
10.1261414083
100
AcDbArc
 50
136.6444845869
 51
151.69003902
  0
LINE
  5
1E7
100
AcDbEntity
  8
0
370
        15
390
0
  6
Continuous
 62
         7
100
AcDbLine
 10
6.4420108775
 20
19.5536504504
 30
0.0
 11
7.46089746
 21
21.0406919877
 31
0.0
  0
ARC
  5
1E8
100
AcDbEntity
  8
0
370
        15
390
0
  6
Continuous
 62
         7
100
AcDbCircle
 10
16.3759009056
 20
16.2384577801
 30
0.0
 40
11.7511414083
100
AcDbArc
 50
19.6929541157
 51
151.9498888875
  0
LINE
  5
1E9
100
AcDbEntity
  8
0
370
        15
390
0
  6
Continuous
 62
         7
100
AcDbLine
 10
31.4919956925
 20
118.7867056555
 30
0.0
 11
31.0194551127
 21
117.7859677643
 31
0.0
  0
ARC
  5
1EA
100
AcDbEntity
  8
0
370
        15
390
0
  6
Continuous
 62
         7
100
AcDbCircle
 10
31.052943113
 20
117.7701549933
 30
0.0
 40
0.0370336318
100
AcDbArc
 50
154.7236864726
 51
334.7236864726
  0
LINE
  5
1EB
100
AcDbEntity
  8
0
370
        15
390
0
  6
Continuous
 62
         7
100
AcDbLine
 10
31.0864311132
 20
117.7543422224
 30
0.0
 11
31.5894388814
 21
118.8196029742
 31
0.0
  0
ARC
  5
1EC
100
AcDbEntity
  8
0
370
        15
390
0
  6
Continuous
 62
         7
100
AcDbCircle
 10
35.2994959563
 20
107.6694997953
 30
0.0
 40
11.7511414083
100
AcDbArc
 50
76.4385360035
 51
108.4042167057
  0
LINE
  5
1ED
100
AcDbEntity
  8
0
370
        15
390
0
  6
Continuous
 62
         7
100
AcDbLine
 10
37.3577707921
 20
118.425385179
 30
0.0
 11
38.0550015783
 21
119.0930068385
 31
0.0
  0
ARC
  5
1EE
100
AcDbEntity
  8
0
370
        15
390
0
  6
Continuous
 62
         7
100
AcDbCircle
 10
37.3909303334
 20
118.3907550068
 30
0.0
 40
0.0479458445
100
AcDbArc
 50
133.7572195533
 51
313.7572195533
  0
LINE
  5
1EF
100
AcDbEntity
  8
0
370
        15
390
0
  6
Continuous
 62
         7
100
AcDbLine
 10
38.1652821202
 20
119.065841053
 30
0.0
 11
37.4240898747
 21
118.3561248346
 31
0.0
  0
ARC
  5
1F0
100
AcDbEntity
  8
0
370
        15
390
0
  6
Continuous
 62
         7
100
AcDbCircle
 10
35.2994959563
 20
107.6694997953
 30
0.0
 40
11.7511414083
100
AcDbArc
 50
47.6749951142
 51
75.8847584024
  0
LINE
  5
1F1
100
AcDbEntity
  8
0
370
        15
390
0
  6
Continuous
 62
         7
100
AcDbLine
 10
43.2119535465
 20
116.3575570742
 30
0.0
 11
42.4298678314
 21
115.9654398268
 31
0.0
  0
ARC
  5
1F2
100
AcDbEntity
  8
0
370
        15
390
0
  6
Continuous
 62
         7
100
AcDbCircle
 10
42.4624959149
 20
115.9003624597
 30
0.0
 40
0.0727987331
100
AcDbArc
 50
116.6279846112
 51
296.6279846112
  0
LINE
  5
1F3
100
AcDbEntity
  8
0
370
        15
390
0
  6
Continuous
 62
         7
100
AcDbLine
 10
42.4951239984
 20
115.8352850927
 30
0.0
 11
43.3263071111
 21
116.2520184864
 31
0.0
  0
ARC
  5
1F4
100
AcDbEntity
  8
0
370
        15
390
0
  6
Continuous
 62
         7
100
AcDbCircle
 10
35.2994959563
 20
107.6694997953
 30
0.0
 40
11.7511414083
100
AcDbArc
 50
35.0501111125
 51
46.9162617761
  0
LINE
  5
1F5
100
AcDbEntity
  8
0
370
        15
390
0
  6
Continuous
 62
         7
100
AcDbLine
 10
44.9195687969
 20
114.4180939407
 30
0.0
 11
44.8743543779
 21
111.8277616073
 31
0.0
  0
LINE
  5
1F6
100
AcDbEntity
  8
0
370
        15
390
0
  6
Continuous
 62
         7
100
AcDbLine
 10
44.8743543779
 20
111.8277616073
 30
0.0
 11
44.562468336
 21
111.7604755364
 31
0.0
  0
ARC
  5
1F7
100
AcDbEntity
  8
0
370
        15
390
0
  6
Continuous
 62
         7
100
AcDbCircle
 10
35.2994959563
 20
107.6694997953
 30
0.0
 40
10.1261414083
100
AcDbArc
 50
23.8285675471
 51
162.0268422122
  0
ARC
  5
1F8
100
AcDbEntity
  8
0
370
        15
390
0
  6
Continuous
 62
         7
100
AcDbCircle
 10
26.2585877882
 20
105.2587720536
 30
0.0
 40
5.5668354699
100
AcDbArc
 50
96.0951858408
 51
101.4391023428
  0
LINE
  5
1F9
100
AcDbEntity
  8
0
370
        15
390
0
  6
Continuous
 62
         7
100
AcDbLine
 10
25.1545379363
 20
110.7150281944
 30
0.0
 11
24.4859747548
 21
112.2691827868
 31
0.0
  0
ARC
  5
1FA
100
AcDbEntity
  8
0
370
        15
390
0
  6
Continuous
 62
         7
100
AcDbCircle
 10
35.2994959563
 20
107.6694997953
 30
0.0
 40
11.7511414083
100
AcDbArc
 50
138.8139865811
 51
156.9568437605
  0
LINE
  5
1FB
100
AcDbEntity
  8
0
370
        15
390
0
  6
Continuous
 62
         7
100
AcDbLine
 10
26.4558727154
 20
115.4076941823
 30
0.0
 11
26.4292480275
 21
113.8823668332
 31
0.0
  0
ARC
  5
1FC
100
AcDbEntity
  8
0
370
        15
390
0
  6
Continuous
 62
         7
100
AcDbCircle
 10
26.4629079181
 20
113.8817792976
 30
0.0
 40
0.0336650179
100
AcDbArc
 50
178.9999999997
 51
359.0
  0
LINE
  5
1FD
100
AcDbEntity
  8
0
370
        15
390
0
  6
Continuous
 62
         7
100
AcDbLine
 10
26.4965678086
 20
113.881191762
 30
0.0
 11
26.5245712944
 21
115.4855103874
 31
0.0
  0
ARC
  5
1FE
100
AcDbEntity
  8
0
370
        15
390
0
  6
Continuous
 62
         7
100
AcDbCircle
 10
35.2994959563
 20
107.6694997953
 30
0.0
 40
11.7511414083
100
AcDbArc
 50
108.9056736012
 51
138.3078709625
  0
LINE
  5
1FF
100
AcDbEntity
  8
0
370
        15
390
0
  6
Continuous
 62
         7
100
AcDbLine
 10
31.7260456867
 20
115.1240172095
 30
0.0
 11
31.253505107
 21
114.1232793183
 31
0.0
  0
ARC
  5
200
100
AcDbEntity
  8
0
370
        15
390
0
  6
Continuous
 62
         7
100
AcDbCircle
 10
31.2869931072
 20
114.1074665473
 30
0.0
 40
0.0370336318
100
AcDbArc
 50
154.7236864726
 51
334.7236864726
  0
LINE
  5
201
100
AcDbEntity
  8
0
370
        15
390
0
  6
Continuous
 62
         7
100
AcDbLine
 10
31.3204811075
 20
114.0916537764
 30
0.0
 11
31.8234888757
 21
115.1569145281
 31
0.0
  0
ARC
  5
202
100
AcDbEntity
  8
0
370
        15
390
0
  6
Continuous
 62
         7
100
AcDbCircle
 10
35.5335459506
 20
104.0068113493
 30
0.0
 40
11.7511414083
100
AcDbArc
 50
76.4385360035
 51
108.4042167057
  0
LINE
  5
203
100
AcDbEntity
  8
0
370
        15
390
0
  6
Continuous
 62
         7
100
AcDbLine
 10
37.5918207863
 20
114.762696733
 30
0.0
 11
38.2890515725
 21
115.4303183925
 31
0.0
  0
ARC
  5
204
100
AcDbEntity
  8
0
370
        15
390
0
  6
Continuous
 62
         7
100
AcDbCircle
 10
37.6249803276
 20
114.7280665608
 30
0.0
 40
0.0479458445
100
AcDbArc
 50
133.7572195533
 51
313.7572195533
  0
LINE
  5
205
100
AcDbEntity
  8
0
370
        15
390
0
  6
Continuous
 62
         7
100
AcDbLine
 10
38.3993321144
 20
115.4031526069
 30
0.0
 11
37.6581398689
 21
114.6934363885
 31
0.0
  0
ARC
  5
206
100
AcDbEntity
  8
0
370
        15
390
0
  6
Continuous
 62
         7
100
AcDbCircle
 10
35.5335459506
 20
104.0068113493
 30
0.0
 40
11.7511414083
100
AcDbArc
 50
47.6749951142
 51
75.8847584024
  0
LINE
  5
207
100
AcDbEntity
  8
0
370
        15
390
0
  6
Continuous
 62
         7
100
AcDbLine
 10
43.4460035407
 20
112.6948686282
 30
0.0
 11
42.6639178256
 21
112.3027513807
 31
0.0
  0
ARC
  5
208
100
AcDbEntity
  8
0
370
        15
390
0
  6
Continuous
 62
         7
100
AcDbCircle
 10
42.6965459091
 20
112.2376740137
 30
0.0
 40
0.0727987331
100
AcDbArc
 50
116.6279846112
 51
296.6279846112
  0
LINE
  5
209
100
AcDbEntity
  8
0
370
        15
390
0
  6
Continuous
 62
         7
100
AcDbLine
 10
42.7291739927
 20
112.1725966466
 30
0.0
 11
43.5603571054
 21
112.5893300404
 31
0.0
  0
ARC
  5
20A
100
AcDbEntity
  8
0
370
        15
390
0
  6
Continuous
 62
         7
100
AcDbCircle
 10
35.5335459506
 20
104.0068113493
 30
0.0
 40
11.7511414083
100
AcDbArc
 50
35.0501111125
 51
46.9162617761
  0
LINE
  5
20B
100
AcDbEntity
  8
0
370
        15
390
0
  6
Continuous
 62
         7
100
AcDbLine
 10
45.1536187912
 20
110.7554054946
 30
0.0
 11
45.1084043721
 21
108.1650731613
 31
0.0
  0
LINE
  5
20C
100
AcDbEntity
  8
0
370
        15
390
0
  6
Continuous
 62
         7
100
AcDbLine
 10
45.1084043721
 20
108.1650731613
 30
0.0
 11
44.7965183302
 21
108.0977870904
 31
0.0
  0
ARC
  5
20D
100
AcDbEntity
  8
0
370
        15
390
0
  6
Continuous
 62
         7
100
AcDbCircle
 10
35.5335459506
 20
104.0068113493
 30
0.0
 40
10.1261414083
100
AcDbArc
 50
23.8285675471
 51
162.0268422122
  0
ARC
  5
20E
100
AcDbEntity
  8
0
370
        15
390
0
  6
Continuous
 62
         7
100
AcDbCircle
 10
26.4926377825
 20
101.5960836077
 30
0.0
 40
5.5668354698
100
AcDbArc
 50
96.0951858408
 51
101.4391023428
  0
LINE
  5
20F
100
AcDbEntity
  8
0
370
        15
390
0
  6
Continuous
 62
         7
100
AcDbLine
 10
25.3885879305
 20
107.0523397484
 30
0.0
 11
24.7200247491
 21
108.6064943408
 31
0.0
  0
ARC
  5
210
100
AcDbEntity
  8
0
370
        15
390
0
  6
Continuous
 62
         7
100
AcDbCircle
 10
35.5335459506
 20
104.0068113493
 30
0.0
 40
11.7511414083
100
AcDbArc
 50
138.8139865811
 51
156.9568437605
  0
LINE
  5
211
100
AcDbEntity
  8
0
370
        15
390
0
  6
Continuous
 62
         7
100
AcDbLine
 10
26.6899227097
 20
111.7450057363
 30
0.0
 11
26.6632980218
 21
110.2196783872
 31
0.0
  0
ARC
  5
212
100
AcDbEntity
  8
0
370
        15
390
0
  6
Continuous
 62
         7
100
AcDbCircle
 10
26.6969579123
 20
110.2190908516
 30
0.0
 40
0.0336650179
100
AcDbArc
 50
179.0
 51
358.9999999996
  0
LINE
  5
213
100
AcDbEntity
  8
0
370
        15
390
0
  6
Continuous
 62
         7
100
AcDbLine
 10
26.7306178029
 20
110.218503316
 30
0.0
 11
26.7586212886
 21
111.8228219413
 31
0.0
  0
ARC
  5
214
100
AcDbEntity
  8
0
370
        15
390
0
  6
Continuous
 62
         7
100
AcDbCircle
 10
35.5335459506
 20
104.0068113493
 30
0.0
 40
11.7511414083
100
AcDbArc
 50
108.9056736012
 51
138.3078709625
  0
LINE
  5
215
100
AcDbEntity
  8
0
370
        15
390
0
  6
Continuous
 62
         7
100
AcDbLine
 10
31.9320170708
 20
111.5886523298
 30
0.0
 11
31.459476491
 21
110.5879144386
 31
0.0
  0
ARC
  5
216
100
AcDbEntity
  8
0
370
        15
390
0
  6
Continuous
 62
         7
100
AcDbCircle
 10
31.4929644913
 20
110.5721016676
 30
0.0
 40
0.0370336318
100
AcDbArc
 50
154.7236864726
 51
334.7236864726
  0
LINE
  5
217
100
AcDbEntity
  8
0
370
        15
390
0
  6
Continuous
 62
         7
100
AcDbLine
 10
31.5264524915
 20
110.5562888967
 30
0.0
 11
32.0294602598
 21
111.6215496484
 31
0.0
  0
ARC
  5
218
100
AcDbEntity
  8
0
370
        15
390
0
  6
Continuous
 62
         7
100
AcDbCircle
 10
35.7395173346
 20
100.4714464696
 30
0.0
 40
11.7511414083
100
AcDbArc
 50
76.4385360035
 51
108.4042167057
  0
LINE
  5
219
100
AcDbEntity
  8
0
370
        15
390
0
  6
Continuous
 62
         7
100
AcDbLine
 10
37.7977921704
 20
111.2273318533
 30
0.0
 11
38.4950229566
 21
111.8949535128
 31
0.0
  0
ARC
  5
21A
100
AcDbEntity
  8
0
370
        15
390
0
  6
Continuous
 62
         7
100
AcDbCircle
 10
37.8309517117
 20
111.1927016811
 30
0.0
 40
0.0479458445
100
AcDbArc
 50
133.7572195533
 51
313.7572195533
  0
LINE
  5
21B
100
AcDbEntity
  8
0
370
        15
390
0
  6
Continuous
 62
         7
100
AcDbLine
 10
38.6053034985
 20
111.8677877272
 30
0.0
 11
37.864111253
 21
111.1580715088
 31
0.0
  0
ARC
  5
21C
100
AcDbEntity
  8
0
370
        15
390
0
  6
Continuous
 62
         7
100
AcDbCircle
 10
35.7395173346
 20
100.4714464696
 30
0.0
 40
11.7511414083
100
AcDbArc
 50
47.6749951142
 51
75.8847584024
  0
LINE
  5
21D
100
AcDbEntity
  8
0
370
        15
390
0
  6
Continuous
 62
         7
100
AcDbLine
 10
43.6519749248
 20
109.1595037485
 30
0.0
 11
42.8698892097
 21
108.767386501
 31
0.0
  0
ARC
  5
21E
100
AcDbEntity
  8
0
370
        15
390
0
  6
Continuous
 62
         7
100
AcDbCircle
 10
42.9025172932
 20
108.702309134
 30
0.0
 40
0.0727987331
100
AcDbArc
 50
116.6279846112
 51
296.6279846112
  0
LINE
  5
21F
100
AcDbEntity
  8
0
370
        15
390
0
  6
Continuous
 62
         7
100
AcDbLine
 10
42.9351453767
 20
108.6372317669
 30
0.0
 11
43.7663284894
 21
109.0539651607
 31
0.0
  0
ARC
  5
220
100
AcDbEntity
  8
0
370
        15
390
0
  6
Continuous
 62
         7
100
AcDbCircle
 10
35.7395173346
 20
100.4714464696
 30
0.0
 40
11.7511414083
100
AcDbArc
 50
35.0501111125
 51
46.9162617761
  0
LINE
  5
221
100
AcDbEntity
  8
0
370
        15
390
0
  6
Continuous
 62
         7
100
AcDbLine
 10
45.3595901752
 20
107.2200406149
 30
0.0
 11
45.3143757562
 21
104.6297082816
 31
0.0
  0
LINE
  5
222
100
AcDbEntity
  8
0
370
        15
390
0
  6
Continuous
 62
         7
100
AcDbLine
 10
45.3143757562
 20
104.6297082816
 30
0.0
 11
45.0024897143
 21
104.5624222107
 31
0.0
  0
ARC
  5
223
100
AcDbEntity
  8
0
370
        15
390
0
  6
Continuous
 62
         7
100
AcDbCircle
 10
35.7395173346
 20
100.4714464696
 30
0.0
 40
10.1261414083
100
AcDbArc
 50
23.8285675471
 51
162.0268422122
  0
ARC
  5
224
100
AcDbEntity
  8
0
370
        15
390
0
  6
Continuous
 62
         7
100
AcDbCircle
 10
26.6986091665
 20
98.060718728
 30
0.0
 40
5.5668354698
100
AcDbArc
 50
96.0951858408
 51
101.4391023428
  0
LINE
  5
225
100
AcDbEntity
  8
0
370
        15
390
0
  6
Continuous
 62
         7
100
AcDbLine
 10
25.5945593146
 20
103.5169748687
 30
0.0
 11
24.9259961331
 21
105.0711294611
 31
0.0
  0
ARC
  5
226
100
AcDbEntity
  8
0
370
        15
390
0
  6
Continuous
 62
         7
100
AcDbCircle
 10
35.7395173346
 20
100.4714464696
 30
0.0
 40
11.7511414083
100
AcDbArc
 50
138.8139865811
 51
156.9568437605
  0
LINE
  5
227
100
AcDbEntity
  8
0
370
        15
390
0
  6
Continuous
 62
         7
100
AcDbLine
 10
26.8958940937
 20
108.2096408566
 30
0.0
 11
26.8692694058
 21
106.6843135075
 31
0.0
  0
ARC
  5
228
100
AcDbEntity
  8
0
370
        15
390
0
  6
Continuous
 62
         7
100
AcDbCircle
 10
26.9029292964
 20
106.6837259719
 30
0.0
 40
0.0336650179
100
AcDbArc
 50
178.9999999997
 51
359.0
  0
LINE
  5
229
100
AcDbEntity
  8
0
370
        15
390
0
  6
Continuous
 62
         7
100
AcDbLine
 10
26.9365891869
 20
106.6831384363
 30
0.0
 11
26.9645926727
 21
108.2874570616
 31
0.0
  0
ARC
  5
22A
100
AcDbEntity
  8
0
370
        15
390
0
  6
Continuous
 62
         7
100
AcDbCircle
 10
35.7395173346
 20
100.4714464696
 30
0.0
 40
11.7511414083
100
AcDbArc
 50
108.9056736012
 51
138.3078709625
  0
LINE
  5
22B
100
AcDbEntity
  8
0
370
        15
390
0
  6
Continuous
 62
         7
100
AcDbLine
 10
32.1163753141
 20
108.0253473857
 30
0.0
 11
31.6438347343
 21
107.0246094944
 31
0.0
  0
ARC
  5
22C
100
AcDbEntity
  8
0
370
        15
390
0
  6
Continuous
 62
         7
100
AcDbCircle
 10
31.6773227346
 20
107.0087967235
 30
0.0
 40
0.0370336318
100
AcDbArc
 50
154.7236864726
 51
334.7236864726
  0
LINE
  5
22D
100
AcDbEntity
  8
0
370
        15
390
0
  6
Continuous
 62
         7
100
AcDbLine
 10
31.7108107348
 20
106.9929839525
 30
0.0
 11
32.2138185031
 21
108.0582447043
 31
0.0
  0
ARC
  5
22E
100
AcDbEntity
  8
0
370
        15
390
0
  6
Continuous
 62
         7
100
AcDbCircle
 10
35.9238755779
 20
96.9081415255
 30
0.0
 40
11.7511414083
100
AcDbArc
 50
76.4385360035
 51
108.4042167057
  0
LINE
  5
22F
100
AcDbEntity
  8
0
370
        15
390
0
  6
Continuous
 62
         7
100
AcDbLine
 10
37.9821504137
 20
107.6640269092
 30
0.0
 11
38.6793811999
 21
108.3316485686
 31
0.0
  0
ARC
  5
230
100
AcDbEntity
  8
0
370
        15
390
0
  6
Continuous
 62
         7
100
AcDbCircle
 10
38.015309955
 20
107.6293967369
 30
0.0
 40
0.0479458445
100
AcDbArc
 50
133.7572195533
 51
313.7572195533
  0
LINE
  5
231
100
AcDbEntity
  8
0
370
        15
390
0
  6
Continuous
 62
         7
100
AcDbLine
 10
38.7896617418
 20
108.3044827831
 30
0.0
 11
38.0484694963
 21
107.5947665647
 31
0.0
  0
ARC
  5
232
100
AcDbEntity
  8
0
370
        15
390
0
  6
Continuous
 62
         7
100
AcDbCircle
 10
35.9238755779
 20
96.9081415255
 30
0.0
 40
11.7511414083
100
AcDbArc
 50
47.6749951142
 51
75.8847584024
  0
LINE
  5
233
100
AcDbEntity
  8
0
370
        15
390
0
  6
Continuous
 62
         7
100
AcDbLine
 10
43.8363331681
 20
105.5961988044
 30
0.0
 11
43.054247453
 21
105.2040815569
 31
0.0
  0
ARC
  5
234
100
AcDbEntity
  8
0
370
        15
390
0
  6
Continuous
 62
         7
100
AcDbCircle
 10
43.0868755365
 20
105.1390041899
 30
0.0
 40
0.0727987331
100
AcDbArc
 50
116.6279846112
 51
296.6279846112
  0
LINE
  5
235
100
AcDbEntity
  8
0
370
        15
390
0
  6
Continuous
 62
         7
100
AcDbLine
 10
43.11950362
 20
105.0739268228
 30
0.0
 11
43.9506867327
 21
105.4906602166
 31
0.0
  0
ARC
  5
236
100
AcDbEntity
  8
0
370
        15
390
0
  6
Continuous
 62
         7
100
AcDbCircle
 10
35.9238755779
 20
96.9081415255
 30
0.0
 40
11.7511414083
100
AcDbArc
 50
35.0501111125
 51
46.9162617761
  0
LINE
  5
237
100
AcDbEntity
  8
0
370
        15
390
0
  6
Continuous
 62
         7
100
AcDbLine
 10
45.5439484186
 20
103.6567356708
 30
0.0
 11
45.4987339995
 21
101.0664033374
 31
0.0
  0
LINE
  5
238
100
AcDbEntity
  8
0
370
        15
390
0
  6
Continuous
 62
         7
100
AcDbLine
 10
45.4987339995
 20
101.0664033374
 30
0.0
 11
45.1868479576
 21
100.9991172666
 31
0.0
  0
ARC
  5
239
100
AcDbEntity
  8
0
370
        15
390
0
  6
Continuous
 62
         7
100
AcDbCircle
 10
35.9238755779
 20
96.9081415255
 30
0.0
 40
10.1261414083
100
AcDbArc
 50
23.8285675471
 51
162.0268422122
  0
ARC
  5
23A
100
AcDbEntity
  8
0
370
        15
390
0
  6
Continuous
 62
         7
100
AcDbCircle
 10
26.8829674098
 20
94.497413784
 30
0.0
 40
5.5668354698
100
AcDbArc
 50
96.0951858407
 51
101.4391023429
  0
LINE
  5
23B
100
AcDbEntity
  8
0
370
        15
390
0
  6
Continuous
 62
         7
100
AcDbLine
 10
25.7789175579
 20
99.9536699246
 30
0.0
 11
25.1103543764
 21
101.5078245169
 31
0.0
  0
ARC
  5
23C
100
AcDbEntity
  8
0
370
        15
390
0
  6
Continuous
 62
         7
100
AcDbCircle
 10
35.9238755779
 20
96.9081415255
 30
0.0
 40
11.7511414083
100
AcDbArc
 50
138.8139865811
 51
156.9568437605
  0
LINE
  5
23D
100
AcDbEntity
  8
0
370
        15
390
0
  6
Continuous
 62
         7
100
AcDbLine
 10
27.0802523371
 20
104.6463359125
 30
0.0
 11
27.0536276491
 21
103.1210085633
 31
0.0
  0
ARC
  5
23E
100
AcDbEntity
  8
0
370
        15
390
0
  6
Continuous
 62
         7
100
AcDbCircle
 10
27.0872875397
 20
103.1204210278
 30
0.0
 40
0.0336650179
100
AcDbArc
 50
178.9999999997
 51
359.0
  0
LINE
  5
23F
100
AcDbEntity
  8
0
370
        15
390
0
  6
Continuous
 62
         7
100
AcDbLine
 10
27.1209474302
 20
103.1198334922
 30
0.0
 11
27.148950916
 21
104.7241521175
 31
0.0
  0
ARC
  5
240
100
AcDbEntity
  8
0
370
        15
390
0
  6
Continuous
 62
         7
100
AcDbCircle
 10
35.9238755779
 20
96.9081415255
 30
0.0
 40
11.7511414083
100
AcDbArc
 50
108.9056736012
 51
138.3078709625
  0
LINE
  5
241
100
AcDbEntity
  8
0
370
        15
390
0
  6
Continuous
 62
         7
100
AcDbLine
 10
32.3223466981
 20
104.5893660079
 30
0.0
 11
31.8498061184
 21
103.5886281166
 31
0.0
  0
ARC
  5
242
100
AcDbEntity
  8
0
370
        15
390
0
  6
Continuous
 62
         7
100
AcDbCircle
 10
31.8832941186
 20
103.5728153457
 30
0.0
 40
0.0370336318
100
AcDbArc
 50
154.7236864726
 51
334.7236864726
  0
LINE
  5
243
100
AcDbEntity
  8
0
370
        15
390
0
  6
Continuous
 62
         7
100
AcDbLine
 10
31.9167821189
 20
103.5570025747
 30
0.0
 11
32.4197898871
 21
104.6222633265
 31
0.0
  0
ARC
  5
244
100
AcDbEntity
  8
0
370
        15
390
0
  6
Continuous
 62
         7
100
AcDbCircle
 10
36.129846962
 20
93.4721601477
 30
0.0
 40
11.7511414083
100
AcDbArc
 50
76.4385360035
 51
108.4042167057
  0
LINE
  5
245
100
AcDbEntity
  8
0
370
        15
390
0
  6
Continuous
 62
         7
100
AcDbLine
 10
38.1881217978
 20
104.2280455314
 30
0.0
 11
38.8853525839
 21
104.8956671908
 31
0.0
  0
ARC
  5
246
100
AcDbEntity
  8
0
370
        15
390
0
  6
Continuous
 62
         7
100
AcDbCircle
 10
38.221281339
 20
104.1934153591
 30
0.0
 40
0.0479458445
100
AcDbArc
 50
133.7572195533
 51
313.7572195533
  0
LINE
  5
247
100
AcDbEntity
  8
0
370
        15
390
0
  6
Continuous
 62
         7
100
AcDbLine
 10
38.9956331258
 20
104.8685014053
 30
0.0
 11
38.2544408803
 21
104.1587851869
 31
0.0
  0
ARC
  5
248
100
AcDbEntity
  8
0
370
        15
390
0
  6
Continuous
 62
         7
100
AcDbCircle
 10
36.129846962
 20
93.4721601477
 30
0.0
 40
11.7511414083
100
AcDbArc
 50
47.6749951142
 51
75.8847584024
  0
LINE
  5
249
100
AcDbEntity
  8
0
370
        15
390
0
  6
Continuous
 62
         7
100
AcDbLine
 10
44.0423045521
 20
102.1602174266
 30
0.0
 11
43.260218837
 21
101.7681001791
 31
0.0
  0
ARC
  5
24A
100
AcDbEntity
  8
0
370
        15
390
0
  6
Continuous
 62
         7
100
AcDbCircle
 10
43.2928469206
 20
101.7030228121
 30
0.0
 40
0.0727987331
100
AcDbArc
 50
116.6279846112
 51
296.6279846112
  0
LINE
  5
24B
100
AcDbEntity
  8
0
370
        15
390
0
  6
Continuous
 62
         7
100
AcDbLine
 10
43.3254750041
 20
101.637945445
 30
0.0
 11
44.1566581168
 21
102.0546788388
 31
0.0
  0
ARC
  5
24C
100
AcDbEntity
  8
0
370
        15
390
0
  6
Continuous
 62
         7
100
AcDbCircle
 10
36.129846962
 20
93.4721601477
 30
0.0
 40
11.7511414083
100
AcDbArc
 50
35.0501111125
 51
46.9162617761
  0
LINE
  5
24D
100
AcDbEntity
  8
0
370
        15
390
0
  6
Continuous
 62
         7
100
AcDbLine
 10
45.7499198026
 20
100.220754293
 30
0.0
 11
45.7047053835
 21
97.6304219596
 31
0.0
  0
LINE
  5
24E
100
AcDbEntity
  8
0
370
        15
390
0
  6
Continuous
 62
         7
100
AcDbLine
 10
45.7047053835
 20
97.6304219596
 30
0.0
 11
45.3928193416
 21
97.5631358888
 31
0.0
  0
ARC
  5
24F
100
AcDbEntity
  8
0
370
        15
390
0
  6
Continuous
 62
         7
100
AcDbCircle
 10
36.129846962
 20
93.4721601477
 30
0.0
 40
10.1261414083
100
AcDbArc
 50
23.8285675471
 51
162.0268422122
  0
ARC
  5
250
100
AcDbEntity
  8
0
370
        15
390
0
  6
Continuous
 62
         7
100
AcDbCircle
 10
27.0889387939
 20
91.0614324062
 30
0.0
 40
5.5668354697
100
AcDbArc
 50
96.0951858407
 51
101.4391023429
  0
LINE
  5
251
100
AcDbEntity
  8
0
370
        15
390
0
  6
Continuous
 62
         7
100
AcDbLine
 10
25.984888942
 20
96.5176885468
 30
0.0
 11
25.3163257605
 21
98.0718431391
 31
0.0
  0
ARC
  5
252
100
AcDbEntity
  8
0
370
        15
390
0
  6
Continuous
 62
         7
100
AcDbCircle
 10
36.129846962
 20
93.4721601477
 30
0.0
 40
11.7511414083
100
AcDbArc
 50
138.8139865811
 51
156.9568437605
  0
LINE
  5
253
100
AcDbEntity
  8
0
370
        15
390
0
  6
Continuous
 62
         7
100
AcDbLine
 10
27.2862237211
 20
101.2103545347
 30
0.0
 11
27.2595990332
 21
99.6850271855
 31
0.0
  0
ARC
  5
254
100
AcDbEntity
  8
0
370
        15
390
0
  6
Continuous
 62
         7
100
AcDbCircle
 10
27.2932589237
 20
99.68443965
 30
0.0
 40
0.0336650179
100
AcDbArc
 50
179.0
 51
358.9999999996
  0
LINE
  5
255
100
AcDbEntity
  8
0
370
        15
390
0
  6
Continuous
 62
         7
100
AcDbLine
 10
27.3269188143
 20
99.6838521144
 30
0.0
 11
27.3549223
 21
101.2881707397
 31
0.0
  0
ARC
  5
256
100
AcDbEntity
  8
0
370
        15
390
0
  6
Continuous
 62
         7
100
AcDbCircle
 10
36.129846962
 20
93.4721601477
 30
0.0
 40
11.7511414083
100
AcDbArc
 50
108.9056736012
 51
138.3078709625
  0
LINE
  5
257
100
AcDbEntity
  8
0
370
        15
390
0
  6
Continuous
 62
         7
100
AcDbLine
 10
32.132382579
 20
100.6011784327
 30
0.0
 11
31.6598419992
 21
99.6004405415
 31
0.0
  0
ARC
  5
258
100
AcDbEntity
  8
0
370
        15
390
0
  6
Continuous
 62
         7
100
AcDbCircle
 10
31.6933299995
 20
99.5846277705
 30
0.0
 40
0.0370336318
100
AcDbArc
 50
154.7236864726
 51
334.7236864726
  0
LINE
  5
259
100
AcDbEntity
  8
0
370
        15
390
0
  6
Continuous
 62
         7
100
AcDbLine
 10
31.7268179998
 20
99.5688149996
 30
0.0
 11
32.229825768
 21
100.6340757514
 31
0.0
  0
ARC
  5
25A
100
AcDbEntity
  8
0
370
        15
390
0
  6
Continuous
 62
         7
100
AcDbCircle
 10
35.9398828429
 20
89.4839725725
 30
0.0
 40
11.7511414083
100
AcDbArc
 50
76.4385360035
 51
108.4042167057
  0
LINE
  5
25B
100
AcDbEntity
  8
0
370
        15
390
0
  6
Continuous
 62
         7
100
AcDbLine
 10
37.9981576786
 20
100.2398579562
 30
0.0
 11
38.6953884648
 21
100.9074796157
 31
0.0
  0
ARC
  5
25C
100
AcDbEntity
  8
0
370
        15
390
0
  6
Continuous
 62
         7
100
AcDbCircle
 10
38.0313172199
 20
100.205227784
 30
0.0
 40
0.0479458445
100
AcDbArc
 50
133.7572195533
 51
313.7572195533
  0
LINE
  5
25D
100
AcDbEntity
  8
0
370
        15
390
0
  6
Continuous
 62
         7
100
AcDbLine
 10
38.8056690067
 20
100.8803138302
 30
0.0
 11
38.0644767612
 21
100.1705976117
 31
0.0
  0
ARC
  5
25E
100
AcDbEntity
  8
0
370
        15
390
0
  6
Continuous
 62
         7
100
AcDbCircle
 10
35.9398828429
 20
89.4839725725
 30
0.0
 40
11.7511414083
100
AcDbArc
 50
47.6749951142
 51
75.8847584024
  0
LINE
  5
25F
100
AcDbEntity
  8
0
370
        15
390
0
  6
Continuous
 62
         7
100
AcDbLine
 10
43.852340433
 20
98.1720298514
 30
0.0
 11
43.0702547179
 21
97.779912604
 31
0.0
  0
ARC
  5
260
100
AcDbEntity
  8
0
370
        15
390
0
  6
Continuous
 62
         7
100
AcDbCircle
 10
43.1028828014
 20
97.7148352369
 30
0.0
 40
0.0727987331
100
AcDbArc
 50
116.6279846112
 51
296.6279846112
  0
LINE
  5
261
100
AcDbEntity
  8
0
370
        15
390
0
  6
Continuous
 62
         7
100
AcDbLine
 10
43.135510885
 20
97.6497578698
 30
0.0
 11
43.9666939976
 21
98.0664912636
 31
0.0
  0
ARC
  5
262
100
AcDbEntity
  8
0
370
        15
390
0
  6
Continuous
 62
         7
100
AcDbCircle
 10
35.9398828429
 20
89.4839725725
 30
0.0
 40
11.7511414083
100
AcDbArc
 50
35.0501111125
 51
46.9162617761
  0
LINE
  5
263
100
AcDbEntity
  8
0
370
        15
390
0
  6
Continuous
 62
         7
100
AcDbLine
 10
45.5599556835
 20
96.2325667178
 30
0.0
 11
45.5147412644
 21
93.6422343845
 31
0.0
  0
LINE
  5
264
100
AcDbEntity
  8
0
370
        15
390
0
  6
Continuous
 62
         7
100
AcDbLine
 10
45.5147412644
 20
93.6422343845
 30
0.0
 11
45.2028552225
 21
93.5749483136
 31
0.0
  0
ARC
  5
265
100
AcDbEntity
  8
0
370
        15
390
0
  6
Continuous
 62
         7
100
AcDbCircle
 10
35.9398828429
 20
89.4839725725
 30
0.0
 40
10.1261414083
100
AcDbArc
 50
23.8285675471
 51
162.0268422122
  0
ARC
  5
266
100
AcDbEntity
  8
0
370
        15
390
0
  6
Continuous
 62
         7
100
AcDbCircle
 10
26.8989746748
 20
87.0732448309
 30
0.0
 40
5.5668354698
100
AcDbArc
 50
96.0951858407
 51
101.4391023428
  0
LINE
  5
267
100
AcDbEntity
  8
0
370
        15
390
0
  6
Continuous
 62
         7
100
AcDbLine
 10
25.7949248228
 20
92.5295009716
 30
0.0
 11
25.1263616413
 21
94.083655564
 31
0.0
  0
ARC
  5
268
100
AcDbEntity
  8
0
370
        15
390
0
  6
Continuous
 62
         7
100
AcDbCircle
 10
35.9398828429
 20
89.4839725725
 30
0.0
 40
11.7511414083
100
AcDbArc
 50
138.8139865811
 51
156.9568437605
  0
LINE
  5
269
100
AcDbEntity
  8
0
370
        15
390
0
  6
Continuous
 62
         7
100
AcDbLine
 10
27.096259602
 20
97.2221669595
 30
0.0
 11
27.0696349141
 21
95.6968396104
 31
0.0
  0
ARC
  5
26A
100
AcDbEntity
  8
0
370
        15
390
0
  6
Continuous
 62
         7
100
AcDbCircle
 10
27.1032948046
 20
95.6962520748
 30
0.0
 40
0.0336650179
100
AcDbArc
 50
178.9999999997
 51
359.0
  0
LINE
  5
26B
100
AcDbEntity
  8
0
370
        15
390
0
  6
Continuous
 62
         7
100
AcDbLine
 10
27.1369546952
 20
95.6956645392
 30
0.0
 11
27.1649581809
 21
97.2999831646
 31
0.0
  0
ARC
  5
26C
100
AcDbEntity
  8
0
370
        15
390
0
  6
Continuous
 62
         7
100
AcDbCircle
 10
35.9398828429
 20
89.4839725725
 30
0.0
 40
11.7511414083
100
AcDbArc
 50
108.9056736012
 51
138.3078709625
  0
LINE
  5
26D
100
AcDbEntity
  8
0
370
        15
390
0
  6
Continuous
 62
         7
100
AcDbLine
 10
32.3664325733
 20
96.9384899867
 30
0.0
 11
31.8938919935
 21
95.9377520954
 31
0.0
  0
ARC
  5
26E
100
AcDbEntity
  8
0
370
        15
390
0
  6
Continuous
 62
         7
100
AcDbCircle
 10
31.9273799938
 20
95.9219393245
 30
0.0
 40
0.0370336318
100
AcDbArc
 50
154.7236864726
 51
334.7236864726
  0
LINE
  5
26F
100
AcDbEntity
  8
0
370
        15
390
0
  6
Continuous
 62
         7
100
AcDbLine
 10
31.960867994
 20
95.9061265535
 30
0.0
 11
32.4638757622
 21
96.9713873053
 31
0.0
  0
ARC
  5
270
100
AcDbEntity
  8
0
370
        15
390
0
  6
Continuous
 62
         7
100
AcDbCircle
 10
36.1739328371
 20
85.8212841265
 30
0.0
 40
11.7511414083
100
AcDbArc
 50
76.4385360035
 51
108.4042167057
  0
LINE
  5
271
100
AcDbEntity
  8
0
370
        15
390
0
  6
Continuous
 62
         7
100
AcDbLine
 10
38.2322076729
 20
96.5771695102
 30
0.0
 11
38.9294384591
 21
97.2447911696
 31
0.0
  0
ARC
  5
272
100
AcDbEntity
  8
0
370
        15
390
0
  6
Continuous
 62
         7
100
AcDbCircle
 10
38.2653672142
 20
96.5425393379
 30
0.0
 40
0.0479458445
100
AcDbArc
 50
133.7572195533
 51
313.7572195533
  0
LINE
  5
273
100
AcDbEntity
  8
0
370
        15
390
0
  6
Continuous
 62
         7
100
AcDbLine
 10
39.039719001
 20
97.2176253841
 30
0.0
 11
38.2985267555
 21
96.5079091657
 31
0.0
  0
ARC
  5
274
100
AcDbEntity
  8
0
370
        15
390
0
  6
Continuous
 62
         7
100
AcDbCircle
 10
36.1739328371
 20
85.8212841265
 30
0.0
 40
11.7511414083
100
AcDbArc
 50
47.6749951142
 51
75.8847584024
  0
LINE
  5
275
100
AcDbEntity
  8
0
370
        15
390
0
  6
Continuous
 62
         7
100
AcDbLine
 10
44.0863904273
 20
94.5093414054
 30
0.0
 11
43.3043047122
 21
94.1172241579
 31
0.0
  0
ARC
  5
276
100
AcDbEntity
  8
0
370
        15
390
0
  6
Continuous
 62
         7
100
AcDbCircle
 10
43.3369327957
 20
94.0521467909
 30
0.0
 40
0.0727987331
100
AcDbArc
 50
116.6279846112
 51
296.6279846112
  0
LINE
  5
277
100
AcDbEntity
  8
0
370
        15
390
0
  6
Continuous
 62
         7
100
AcDbLine
 10
43.3695608792
 20
93.9870694238
 30
0.0
 11
44.2007439919
 21
94.4038028176
 31
0.0
  0
ARC
  5
278
100
AcDbEntity
  8
0
370
        15
390
0
  6
Continuous
 62
         7
100
AcDbCircle
 10
36.1739328371
 20
85.8212841265
 30
0.0
 40
11.7511414083
100
AcDbArc
 50
35.0501111125
 51
46.9162617761
  0
LINE
  5
279
100
AcDbEntity
  8
0
370
        15
390
0
  6
Continuous
 62
         7
100
AcDbLine
 10
45.7940056777
 20
92.5698782718
 30
0.0
 11
45.7487912587
 21
89.9795459384
 31
0.0
  0
LINE
  5
27A
100
AcDbEntity
  8
0
370
        15
390
0
  6
Continuous
 62
         7
100
AcDbLine
 10
45.7487912587
 20
89.9795459384
 30
0.0
 11
45.4369052168
 21
89.9122598676
 31
0.0
  0
ARC
  5
27B
100
AcDbEntity
  8
0
370
        15
390
0
  6
Continuous
 62
         7
100
AcDbCircle
 10
36.1739328371
 20
85.8212841265
 30
0.0
 40
10.1261414083
100
AcDbArc
 50
23.8285675471
 51
162.0268422122
  0
ARC
  5
27C
100
AcDbEntity
  8
0
370
        15
390
0
  6
Continuous
 62
         7
100
AcDbCircle
 10
27.133024669
 20
83.410556385
 30
0.0
 40
5.5668354698
100
AcDbArc
 50
96.0951858407
 51
101.4391023429
  0
LINE
  5
27D
100
AcDbEntity
  8
0
370
        15
390
0
  6
Continuous
 62
         7
100
AcDbLine
 10
26.0289748171
 20
88.8668125256
 30
0.0
 11
25.3604116356
 21
90.4209671179
 31
0.0
  0
ARC
  5
27E
100
AcDbEntity
  8
0
370
        15
390
0
  6
Continuous
 62
         7
100
AcDbCircle
 10
36.1739328371
 20
85.8212841265
 30
0.0
 40
11.7511414083
100
AcDbArc
 50
138.8139865811
 51
156.9568437605
  0
LINE
  5
27F
100
AcDbEntity
  8
0
370
        15
390
0
  6
Continuous
 62
         7
100
AcDbLine
 10
27.3303095962
 20
93.5594785135
 30
0.0
 11
27.3036849083
 21
92.0341511644
 31
0.0
  0
ARC
  5
280
100
AcDbEntity
  8
0
370
        15
390
0
  6
Continuous
 62
         7
100
AcDbCircle
 10
27.3373447989
 20
92.0335636288
 30
0.0
 40
0.0336650179
100
AcDbArc
 50
179.0
 51
358.9999999996
  0
LINE
  5
281
100
AcDbEntity
  8
0
370
        15
390
0
  6
Continuous
 62
         7
100
AcDbLine
 10
27.3710046894
 20
92.0329760932
 30
0.0
 11
27.3990081752
 21
93.6372947185
 31
0.0
  0
ARC
  5
282
100
AcDbEntity
  8
0
370
        15
390
0
  6
Continuous
 62
         7
100
AcDbCircle
 10
36.1739328371
 20
85.8212841265
 30
0.0
 40
11.7511414083
100
AcDbArc
 50
108.9056736012
 51
138.3078709625
  0
LINE
  5
283
100
AcDbEntity
  8
0
370
        15
390
0
  6
Continuous
 62
         7
100
AcDbLine
 10
32.5724039573
 20
93.403125107
 30
0.0
 11
32.0998633776
 21
92.4023872158
 31
0.0
  0
ARC
  5
284
100
AcDbEntity
  8
0
370
        15
390
0
  6
Continuous
 62
         7
100
AcDbCircle
 10
32.1333513778
 20
92.3865744448
 30
0.0
 40
0.0370336318
100
AcDbArc
 50
154.7236864726
 51
334.7236864726
  0
LINE
  5
285
100
AcDbEntity
  8
0
370
        15
390
0
  6
Continuous
 62
         7
100
AcDbLine
 10
32.1668393781
 20
92.3707616738
 30
0.0
 11
32.6698471463
 21
93.4360224256
 31
0.0
  0
ARC
  5
286
100
AcDbEntity
  8
0
370
        15
390
0
  6
Continuous
 62
         7
100
AcDbCircle
 10
36.3799042212
 20
82.2859192468
 30
0.0
 40
11.7511414083
100
AcDbArc
 50
76.4385360035
 51
108.4042167057
  0
LINE
  5
287
100
AcDbEntity
  8
0
370
        15
390
0
  6
Continuous
 62
         7
100
AcDbLine
 10
38.4381790569
 20
93.0418046305
 30
0.0
 11
39.1354098431
 21
93.7094262899
 31
0.0
  0
ARC
  5
288
100
AcDbEntity
  8
0
370
        15
390
0
  6
Continuous
 62
         7
100
AcDbCircle
 10
38.4713385982
 20
93.0071744582
 30
0.0
 40
0.0479458445
100
AcDbArc
 50
133.7572195533
 51
313.7572195533
  0
LINE
  5
289
100
AcDbEntity
  8
0
370
        15
390
0
  6
Continuous
 62
         7
100
AcDbLine
 10
39.245690385
 20
93.6822605044
 30
0.0
 11
38.5044981395
 21
92.972544286
 31
0.0
  0
ARC
  5
28A
100
AcDbEntity
  8
0
370
        15
390
0
  6
Continuous
 62
         7
100
AcDbCircle
 10
36.3799042212
 20
82.2859192468
 30
0.0
 40
11.7511414083
100
AcDbArc
 50
47.6749951142
 51
75.8847584024
  0
LINE
  5
28B
100
AcDbEntity
  8
0
370
        15
390
0
  6
Continuous
 62
         7
100
AcDbLine
 10
44.2923618113
 20
90.9739765257
 30
0.0
 11
43.5102760962
 21
90.5818592782
 31
0.0
  0
ARC
  5
28C
100
AcDbEntity
  8
0
370
        15
390
0
  6
Continuous
 62
         7
100
AcDbCircle
 10
43.5429041797
 20
90.5167819112
 30
0.0
 40
0.0727987331
100
AcDbArc
 50
116.6279846112
 51
296.6279846112
  0
LINE
  5
28D
100
AcDbEntity
  8
0
370
        15
390
0
  6
Continuous
 62
         7
100
AcDbLine
 10
43.5755322633
 20
90.4517045441
 30
0.0
 11
44.406715376
 21
90.8684379379
 31
0.0
  0
ARC
  5
28E
100
AcDbEntity
  8
0
370
        15
390
0
  6
Continuous
 62
         7
100
AcDbCircle
 10
36.3799042212
 20
82.2859192468
 30
0.0
 40
11.7511414083
100
AcDbArc
 50
35.0501111125
 51
46.9162617761
  0
LINE
  5
28F
100
AcDbEntity
  8
0
370
        15
390
0
  6
Continuous
 62
         7
100
AcDbLine
 10
45.9999770618
 20
89.0345133921
 30
0.0
 11
45.9547626427
 21
86.4441810587
 31
0.0
  0
LINE
  5
290
100
AcDbEntity
  8
0
370
        15
390
0
  6
Continuous
 62
         7
100
AcDbLine
 10
45.9547626427
 20
86.4441810587
 30
0.0
 11
45.6428766008
 21
86.3768949879
 31
0.0
  0
ARC
  5
291
100
AcDbEntity
  8
0
370
        15
390
0
  6
Continuous
 62
         7
100
AcDbCircle
 10
36.3799042212
 20
82.2859192468
 30
0.0
 40
10.1261414083
100
AcDbArc
 50
23.8285675471
 51
162.0268422122
  0
ARC
  5
292
100
AcDbEntity
  8
0
370
        15
390
0
  6
Continuous
 62
         7
100
AcDbCircle
 10
27.3389960531
 20
79.8751915052
 30
0.0
 40
5.5668354698
100
AcDbArc
 50
96.0951858408
 51
101.4391023429
  0
LINE
  5
293
100
AcDbEntity
  8
0
370
        15
390
0
  6
Continuous
 62
         7
100
AcDbLine
 10
26.2349462011
 20
85.3314476459
 30
0.0
 11
25.5663830197
 21
86.8856022382
 31
0.0
  0
ARC
  5
294
100
AcDbEntity
  8
0
370
        15
390
0
  6
Continuous
 62
         7
100
AcDbCircle
 10
36.3799042212
 20
82.2859192468
 30
0.0
 40
11.7511414083
100
AcDbArc
 50
138.8139865811
 51
156.9568437605
  0
LINE
  5
295
100
AcDbEntity
  8
0
370
        15
390
0
  6
Continuous
 62
         7
100
AcDbLine
 10
27.5362809803
 20
90.0241136338
 30
0.0
 11
27.5096562924
 21
88.4987862847
 31
0.0
  0
ARC
  5
296
100
AcDbEntity
  8
0
370
        15
390
0
  6
Continuous
 62
         7
100
AcDbCircle
 10
27.5433161829
 20
88.4981987491
 30
0.0
 40
0.0336650179
100
AcDbArc
 50
178.9999999997
 51
359.0
  0
LINE
  5
297
100
AcDbEntity
  8
0
370
        15
390
0
  6
Continuous
 62
         7
100
AcDbLine
 10
27.5769760735
 20
88.4976112135
 30
0.0
 11
27.6049795592
 21
90.1019298388
 31
0.0
  0
ARC
  5
298
100
AcDbEntity
  8
0
370
        15
390
0
  6
Continuous
 62
         7
100
AcDbCircle
 10
36.3799042212
 20
82.2859192468
 30
0.0
 40
11.7511414083
100
AcDbArc
 50
108.9056736012
 51
138.3078709625
  0
LINE
  5
299
100
AcDbEntity
  8
0
370
        15
390
0
  6
Continuous
 62
         7
100
AcDbLine
 10
32.7567622006
 20
89.8398201629
 30
0.0
 11
32.2842216209
 21
88.8390822716
 31
0.0
  0
ARC
  5
29A
100
AcDbEntity
  8
0
370
        15
390
0
  6
Continuous
 62
         7
100
AcDbCircle
 10
32.3177096211
 20
88.8232695007
 30
0.0
 40
0.0370336318
100
AcDbArc
 50
154.7236864726
 51
334.7236864726
  0
LINE
  5
29B
100
AcDbEntity
  8
0
370
        15
390
0
  6
Continuous
 62
         7
100
AcDbLine
 10
32.3511976214
 20
88.8074567297
 30
0.0
 11
32.8542053896
 21
89.8727174815
 31
0.0
  0
ARC
  5
29C
100
AcDbEntity
  8
0
370
        15
390
0
  6
Continuous
 62
         7
100
AcDbCircle
 10
36.5642624645
 20
78.7226143027
 30
0.0
 40
11.7511414083
100
AcDbArc
 50
76.4385360035
 51
108.4042167057
  0
LINE
  5
29D
100
AcDbEntity
  8
0
370
        15
390
0
  6
Continuous
 62
         7
100
AcDbLine
 10
38.6225373002
 20
89.4784996863
 30
0.0
 11
39.3197680864
 21
90.1461213458
 31
0.0
  0
ARC
  5
29E
100
AcDbEntity
  8
0
370
        15
390
0
  6
Continuous
 62
         7
100
AcDbCircle
 10
38.6556968415
 20
89.4438695141
 30
0.0
 40
0.0479458445
100
AcDbArc
 50
133.7572195533
 51
313.7572195533
  0
LINE
  5
29F
100
AcDbEntity
  8
0
370
        15
390
0
  6
Continuous
 62
         7
100
AcDbLine
 10
39.4300486283
 20
90.1189555603
 30
0.0
 11
38.6888563828
 21
89.4092393419
 31
0.0
  0
ARC
  5
2A0
100
AcDbEntity
  8
0
370
        15
390
0
  6
Continuous
 62
         7
100
AcDbCircle
 10
36.5642624645
 20
78.7226143027
 30
0.0
 40
11.7511414083
100
AcDbArc
 50
47.6749951142
 51
75.8847584024
  0
LINE
  5
2A1
100
AcDbEntity
  8
0
370
        15
390
0
  6
Continuous
 62
         7
100
AcDbLine
 10
44.4767200546
 20
87.4106715816
 30
0.0
 11
43.6946343395
 21
87.0185543341
 31
0.0
  0
ARC
  5
2A2
100
AcDbEntity
  8
0
370
        15
390
0
  6
Continuous
 62
         7
100
AcDbCircle
 10
43.7272624231
 20
86.953476967
 30
0.0
 40
0.0727987331
100
AcDbArc
 50
116.6279846112
 51
296.6279846112
  0
LINE
  5
2A3
100
AcDbEntity
  8
0
370
        15
390
0
  6
Continuous
 62
         7
100
AcDbLine
 10
43.7598905066
 20
86.8883996
 30
0.0
 11
44.5910736193
 21
87.3051329938
 31
0.0
  0
ARC
  5
2A4
100
AcDbEntity
  8
0
370
        15
390
0
  6
Continuous
 62
         7
100
AcDbCircle
 10
36.5642624645
 20
78.7226143027
 30
0.0
 40
11.7511414083
100
AcDbArc
 50
35.0501111125
 51
46.9162617761
  0
LINE
  5
2A5
100
AcDbEntity
  8
0
370
        15
390
0
  6
Continuous
 62
         7
100
AcDbLine
 10
46.1843353051
 20
85.471208448
 30
0.0
 11
46.139120886
 21
82.8808761146
 31
0.0
  0
LINE
  5
2A6
100
AcDbEntity
  8
0
370
        15
390
0
  6
Continuous
 62
         7
100
AcDbLine
 10
46.139120886
 20
82.8808761146
 30
0.0
 11
45.8272348441
 21
82.8135900437
 31
0.0
  0
ARC
  5
2A7
100
AcDbEntity
  8
0
370
        15
390
0
  6
Continuous
 62
         7
100
AcDbCircle
 10
36.5642624645
 20
78.7226143027
 30
0.0
 40
10.1261414083
100
AcDbArc
 50
23.8285675471
 51
162.0268422122
  0
ARC
  5
2A8
100
AcDbEntity
  8
0
370
        15
390
0
  6
Continuous
 62
         7
100
AcDbCircle
 10
27.5233542964
 20
76.3118865611
 30
0.0
 40
5.5668354698
100
AcDbArc
 50
96.0951858408
 51
101.4391023428
  0
LINE
  5
2A9
100
AcDbEntity
  8
0
370
        15
390
0
  6
Continuous
 62
         7
100
AcDbLine
 10
26.4193044445
 20
81.7681427018
 30
0.0
 11
25.750741263
 21
83.3222972941
 31
0.0
  0
ARC
  5
2AA
100
AcDbEntity
  8
0
370
        15
390
0
  6
Continuous
 62
         7
100
AcDbCircle
 10
36.5642624645
 20
78.7226143027
 30
0.0
 40
11.7511414083
100
AcDbArc
 50
138.8139865811
 51
156.9568437605
  0
LINE
  5
2AB
100
AcDbEntity
  8
0
370
        15
390
0
  6
Continuous
 62
         7
100
AcDbLine
 10
27.7206392236
 20
86.4608086897
 30
0.0
 11
27.6940145357
 21
84.9354813405
 31
0.0
  0
ARC
  5
2AC
100
AcDbEntity
  8
0
370
        15
390
0
  6
Continuous
 62
         7
100
AcDbCircle
 10
27.7276744262
 20
84.934893805
 30
0.0
 40
0.0336650179
100
AcDbArc
 50
178.9999999997
 51
359.0
  0
LINE
  5
2AD
100
AcDbEntity
  8
0
370
        15
390
0
  6
Continuous
 62
         7
100
AcDbLine
 10
27.7613343168
 20
84.9343062694
 30
0.0
 11
27.7893378025
 21
86.5386248947
 31
0.0
  0
ARC
  5
2AE
100
AcDbEntity
  8
0
370
        15
390
0
  6
Continuous
 62
         7
100
AcDbCircle
 10
36.5642624645
 20
78.7226143027
 30
0.0
 40
11.7511414083
100
AcDbArc
 50
108.9056736012
 51
138.3078709625
  0
LINE
  5
2AF
100
AcDbEntity
  8
0
370
        15
390
0
  6
Continuous
 62
         7
100
AcDbLine
 10
32.9627335847
 20
86.4038387851
 30
0.0
 11
32.4901930049
 21
85.4031008938
 31
0.0
  0
ARC
  5
2B0
100
AcDbEntity
  8
0
370
        15
390
0
  6
Continuous
 62
         7
100
AcDbCircle
 10
32.5236810052
 20
85.3872881229
 30
0.0
 40
0.0370336318
100
AcDbArc
 50
154.7236864726
 51
334.7236864726
  0
LINE
  5
2B1
100
AcDbEntity
  8
0
370
        15
390
0
  6
Continuous
 62
         7
100
AcDbLine
 10
32.5571690054
 20
85.3714753519
 30
0.0
 11
33.0601767737
 21
86.4367361037
 31
0.0
  0
ARC
  5
2B2
100
AcDbEntity
  8
0
370
        15
390
0
  6
Continuous
 62
         7
100
AcDbCircle
 10
36.7702338485
 20
75.2866329249
 30
0.0
 40
11.7511414083
100
AcDbArc
 50
76.4385360035
 51
108.4042167057
  0
LINE
  5
2B3
100
AcDbEntity
  8
0
370
        15
390
0
  6
Continuous
 62
         7
100
AcDbLine
 10
38.8285086843
 20
86.0425183085
 30
0.0
 11
39.5257394705
 21
86.710139968
 31
0.0
  0
ARC
  5
2B4
100
AcDbEntity
  8
0
370
        15
390
0
  6
Continuous
 62
         7
100
AcDbCircle
 10
38.8616682256
 20
86.0078881363
 30
0.0
 40
0.0479458445
100
AcDbArc
 50
133.7572195533
 51
313.7572195533
  0
LINE
  5
2B5
100
AcDbEntity
  8
0
370
        15
390
0
  6
Continuous
 62
         7
100
AcDbLine
 10
39.6360200124
 20
86.6829741825
 30
0.0
 11
38.8948277669
 21
85.9732579641
 31
0.0
  0
ARC
  5
2B6
100
AcDbEntity
  8
0
370
        15
390
0
  6
Continuous
 62
         7
100
AcDbCircle
 10
36.7702338485
 20
75.2866329249
 30
0.0
 40
11.7511414083
100
AcDbArc
 50
47.6749951142
 51
75.8847584024
  0
LINE
  5
2B7
100
AcDbEntity
  8
0
370
        15
390
0
  6
Continuous
 62
         7
100
AcDbLine
 10
44.6826914387
 20
83.9746902038
 30
0.0
 11
43.9006057236
 21
83.5825729563
 31
0.0
  0
ARC
  5
2B8
100
AcDbEntity
  8
0
370
        15
390
0
  6
Continuous
 62
         7
100
AcDbCircle
 10
43.9332338071
 20
83.5174955893
 30
0.0
 40
0.0727987331
100
AcDbArc
 50
116.6279846112
 51
296.6279846112
  0
LINE
  5
2B9
100
AcDbEntity
  8
0
370
        15
390
0
  6
Continuous
 62
         7
100
AcDbLine
 10
43.9658618906
 20
83.4524182222
 30
0.0
 11
44.7970450033
 21
83.869151616
 31
0.0
  0
ARC
  5
2BA
100
AcDbEntity
  8
0
370
        15
390
0
  6
Continuous
 62
         7
100
AcDbCircle
 10
36.7702338485
 20
75.2866329249
 30
0.0
 40
11.7511414083
100
AcDbArc
 50
35.0501111125
 51
46.9162617761
  0
LINE
  5
2BB
100
AcDbEntity
  8
0
370
        15
390
0
  6
Continuous
 62
         7
100
AcDbLine
 10
46.3903066892
 20
82.0352270702
 30
0.0
 11
46.3450922701
 21
79.4448947368
 31
0.0
  0
LINE
  5
2BC
100
AcDbEntity
  8
0
370
        15
390
0
  6
Continuous
 62
         7
100
AcDbLine
 10
46.3450922701
 20
79.4448947368
 30
0.0
 11
46.0332062282
 21
79.3776086659
 31
0.0
  0
ARC
  5
2BD
100
AcDbEntity
  8
0
370
        15
390
0
  6
Continuous
 62
         7
100
AcDbCircle
 10
36.7702338485
 20
75.2866329249
 30
0.0
 40
10.1261414083
100
AcDbArc
 50
23.8285675471
 51
162.0268422122
  0
ARC
  5
2BE
100
AcDbEntity
  8
0
370
        15
390
0
  6
Continuous
 62
         7
100
AcDbCircle
 10
27.7293256804
 20
72.8759051833
 30
0.0
 40
5.5668354698
100
AcDbArc
 50
96.0951858407
 51
101.4391023428
  0
LINE
  5
2BF
100
AcDbEntity
  8
0
370
        15
390
0
  6
Continuous
 62
         7
100
AcDbLine
 10
26.6252758285
 20
78.332161324
 30
0.0
 11
25.956712647
 21
79.8863159163
 31
0.0
  0
ARC
  5
2C0
100
AcDbEntity
  8
0
370
        15
390
0
  6
Continuous
 62
         7
100
AcDbCircle
 10
36.7702338485
 20
75.2866329249
 30
0.0
 40
11.7511414083
100
AcDbArc
 50
138.8139865811
 51
156.9568437605
  0
LINE
  5
2C1
100
AcDbEntity
  8
0
370
        15
390
0
  6
Continuous
 62
         7
100
AcDbLine
 10
27.9266106077
 20
83.0248273119
 30
0.0
 11
27.8999859197
 21
81.4994999627
 31
0.0
  0
ARC
  5
2C2
100
AcDbEntity
  8
0
370
        15
390
0
  6
Continuous
 62
         7
100
AcDbCircle
 10
27.9336458103
 20
81.4989124272
 30
0.0
 40
0.0336650179
100
AcDbArc
 50
179.0
 51
359.0
  0
LINE
  5
2C3
100
AcDbEntity
  8
0
370
        15
390
0
  6
Continuous
 62
         7
100
AcDbLine
 10
27.9673057008
 20
81.4983248916
 30
0.0
 11
27.9953091866
 21
83.1026435169
 31
0.0
  0
ARC
  5
2C4
100
AcDbEntity
  8
0
370
        15
390
0
  6
Continuous
 62
         7
100
AcDbCircle
 10
36.7702338485
 20
75.2866329249
 30
0.0
 40
11.7511414083
100
AcDbArc
 50
108.9056736012
 51
138.3078709625
  0
LINE
  5
2C5
100
AcDbEntity
  8
0
370
        15
390
0
  6
Continuous
 62
         7
100
AcDbLine
 10
32.7605900674
 20
82.2404104396
 30
0.0
 11
32.2880494876
 21
81.2396725484
 31
0.0
  0
ARC
  5
2C6
100
AcDbEntity
  8
0
370
        15
390
0
  6
Continuous
 62
         7
100
AcDbCircle
 10
32.3215374879
 20
81.2238597774
 30
0.0
 40
0.0370336318
100
AcDbArc
 50
154.7236864726
 51
334.7236864726
  0
LINE
  5
2C7
100
AcDbEntity
  8
0
370
        15
390
0
  6
Continuous
 62
         7
100
AcDbLine
 10
32.3550254881
 20
81.2080470065
 30
0.0
 11
32.8580332564
 21
82.2733077583
 31
0.0
  0
ARC
  5
2C8
100
AcDbEntity
  8
0
370
        15
390
0
  6
Continuous
 62
         7
100
AcDbCircle
 10
36.5680903312
 20
71.1232045794
 30
0.0
 40
11.7511414083
100
AcDbArc
 50
76.4385360035
 51
108.4042167057
  0
LINE
  5
2C9
100
AcDbEntity
  8
0
370
        15
390
0
  6
Continuous
 62
         7
100
AcDbLine
 10
38.626365167
 20
81.8790899631
 30
0.0
 11
39.3235959532
 21
82.5467116226
 31
0.0
  0
ARC
  5
2CA
100
AcDbEntity
  8
0
370
        15
390
0
  6
Continuous
 62
         7
100
AcDbCircle
 10
38.6595247083
 20
81.8444597909
 30
0.0
 40
0.0479458445
100
AcDbArc
 50
133.7572195533
 51
313.7572195533
  0
LINE
  5
2CB
100
AcDbEntity
  8
0
370
        15
390
0
  6
Continuous
 62
         7
100
AcDbLine
 10
39.4338764951
 20
82.5195458371
 30
0.0
 11
38.6926842496
 21
81.8098296186
 31
0.0
  0
ARC
  5
2CC
100
AcDbEntity
  8
0
370
        15
390
0
  6
Continuous
 62
         7
100
AcDbCircle
 10
36.5680903312
 20
71.1232045794
 30
0.0
 40
11.7511414083
100
AcDbArc
 50
47.6749951142
 51
75.8847584024
  0
LINE
  5
2CD
100
AcDbEntity
  8
0
370
        15
390
0
  6
Continuous
 62
         7
100
AcDbLine
 10
44.4805479214
 20
79.8112618583
 30
0.0
 11
43.6984622063
 21
79.4191446109
 31
0.0
  0
ARC
  5
2CE
100
AcDbEntity
  8
0
370
        15
390
0
  6
Continuous
 62
         7
100
AcDbCircle
 10
43.7310902898
 20
79.3540672438
 30
0.0
 40
0.0727987331
100
AcDbArc
 50
116.6279846112
 51
296.6279846112
  0
LINE
  5
2CF
100
AcDbEntity
  8
0
370
        15
390
0
  6
Continuous
 62
         7
100
AcDbLine
 10
43.7637183733
 20
79.2889898767
 30
0.0
 11
44.594901486
 21
79.7057232705
 31
0.0
  0
ARC
  5
2D0
100
AcDbEntity
  8
0
370
        15
390
0
  6
Continuous
 62
         7
100
AcDbCircle
 10
36.5680903312
 20
71.1232045794
 30
0.0
 40
11.7511414083
100
AcDbArc
 50
35.0501111125
 51
46.9162617761
  0
LINE
  5
2D1
100
AcDbEntity
  8
0
370
        15
390
0
  6
Continuous
 62
         7
100
AcDbLine
 10
46.1881631719
 20
77.8717987247
 30
0.0
 11
46.1429487528
 21
75.2814663914
 31
0.0
  0
LINE
  5
2D2
100
AcDbEntity
  8
0
370
        15
390
0
  6
Continuous
 62
         7
100
AcDbLine
 10
46.1429487528
 20
75.2814663914
 30
0.0
 11
45.8310627109
 21
75.2141803205
 31
0.0
  0
ARC
  5
2D3
100
AcDbEntity
  8
0
370
        15
390
0
  6
Continuous
 62
         7
100
AcDbCircle
 10
36.5680903312
 20
71.1232045794
 30
0.0
 40
10.1261414083
100
AcDbArc
 50
23.8285675471
 51
162.0268422122
  0
ARC
  5
2D4
100
AcDbEntity
  8
0
370
        15
390
0
  6
Continuous
 62
         7
100
AcDbCircle
 10
27.5271821631
 20
68.7124768378
 30
0.0
 40
5.5668354698
100
AcDbArc
 50
96.0951858408
 51
101.4391023428
  0
LINE
  5
2D5
100
AcDbEntity
  8
0
370
        15
390
0
  6
Continuous
 62
         7
100
AcDbLine
 10
26.4231323112
 20
74.1687329785
 30
0.0
 11
25.7545691297
 21
75.7228875709
 31
0.0
  0
ARC
  5
2D6
100
AcDbEntity
  8
0
370
        15
390
0
  6
Continuous
 62
         7
100
AcDbCircle
 10
36.5680903312
 20
71.1232045794
 30
0.0
 40
11.7511414083
100
AcDbArc
 50
138.8139865811
 51
156.9568437605
  0
LINE
  5
2D7
100
AcDbEntity
  8
0
370
        15
390
0
  6
Continuous
 62
         7
100
AcDbLine
 10
27.7244670904
 20
78.8613989664
 30
0.0
 11
27.6978424024
 21
77.3360716173
 31
0.0
  0
ARC
  5
2D8
100
AcDbEntity
  8
0
370
        15
390
0
  6
Continuous
 62
         7
100
AcDbCircle
 10
27.731502293
 20
77.3354840817
 30
0.0
 40
0.0336650179
100
AcDbArc
 50
178.9999999997
 51
359.0
  0
LINE
  5
2D9
100
AcDbEntity
  8
0
370
        15
390
0
  6
Continuous
 62
         7
100
AcDbLine
 10
27.7651621835
 20
77.3348965461
 30
0.0
 11
27.7931656693
 21
78.9392151715
 31
0.0
  0
ARC
  5
2DA
100
AcDbEntity
  8
0
370
        15
390
0
  6
Continuous
 62
         7
100
AcDbCircle
 10
36.5680903312
 20
71.1232045794
 30
0.0
 40
11.7511414083
100
AcDbArc
 50
108.9056736012
 51
138.3078709625
  0
LINE
  5
2DB
100
AcDbEntity
  8
0
370
        15
390
0
  6
Continuous
 62
         7
100
AcDbLine
 10
32.9665614514
 20
78.7050455599
 30
0.0
 11
32.4940208717
 21
77.7043076687
 31
0.0
  0
ARC
  5
2DC
100
AcDbEntity
  8
0
370
        15
390
0
  6
Continuous
 62
         7
100
AcDbCircle
 10
32.5275088719
 20
77.6884948977
 30
0.0
 40
0.0370336318
100
AcDbArc
 50
154.7236864726
 51
334.7236864726
  0
LINE
  5
2DD
100
AcDbEntity
  8
0
370
        15
390
0
  6
Continuous
 62
         7
100
AcDbLine
 10
32.5609968722
 20
77.6726821268
 30
0.0
 11
33.0640046404
 21
78.7379428786
 31
0.0
  0
ARC
  5
2DE
100
AcDbEntity
  8
0
370
        15
390
0
  6
Continuous
 62
         7
100
AcDbCircle
 10
36.7740617153
 20
67.5878396997
 30
0.0
 40
11.7511414083
100
AcDbArc
 50
76.4385360035
 51
108.4042167057
  0
LINE
  5
2DF
100
AcDbEntity
  8
0
370
        15
390
0
  6
Continuous
 62
         7
100
AcDbLine
 10
38.8323365511
 20
78.3437250834
 30
0.0
 11
39.5295673372
 21
79.0113467429
 31
0.0
  0
ARC
  5
2E0
100
AcDbEntity
  8
0
370
        15
390
0
  6
Continuous
 62
         7
100
AcDbCircle
 10
38.8654960923
 20
78.3090949112
 30
0.0
 40
0.0479458445
100
AcDbArc
 50
133.7572195533
 51
313.7572195533
  0
LINE
  5
2E1
100
AcDbEntity
  8
0
370
        15
390
0
  6
Continuous
 62
         7
100
AcDbLine
 10
39.6398478791
 20
78.9841809574
 30
0.0
 11
38.8986556336
 21
78.2744647389
 31
0.0
  0
ARC
  5
2E2
100
AcDbEntity
  8
0
370
        15
390
0
  6
Continuous
 62
         7
100
AcDbCircle
 10
36.7740617153
 20
67.5878396997
 30
0.0
 40
11.7511414083
100
AcDbArc
 50
47.6749951142
 51
75.8847584024
  0
LINE
  5
2E3
100
AcDbEntity
  8
0
370
        15
390
0
  6
Continuous
 62
         7
100
AcDbLine
 10
44.6865193054
 20
76.2758969786
 30
0.0
 11
43.9044335903
 21
75.8837797312
 31
0.0
  0
ARC
  5
2E4
100
AcDbEntity
  8
0
370
        15
390
0
  6
Continuous
 62
         7
100
AcDbCircle
 10
43.9370616739
 20
75.8187023641
 30
0.0
 40
0.0727987331
100
AcDbArc
 50
116.6279846112
 51
296.6279846112
  0
LINE
  5
2E5
100
AcDbEntity
  8
0
370
        15
390
0
  6
Continuous
 62
         7
100
AcDbLine
 10
43.9696897574
 20
75.753624997
 30
0.0
 11
44.8008728701
 21
76.1703583908
 31
0.0
  0
ARC
  5
2E6
100
AcDbEntity
  8
0
370
        15
390
0
  6
Continuous
 62
         7
100
AcDbCircle
 10
36.7740617153
 20
67.5878396997
 30
0.0
 40
11.7511414083
100
AcDbArc
 50
35.0501111125
 51
46.9162617761
  0
LINE
  5
2E7
100
AcDbEntity
  8
0
370
        15
390
0
  6
Continuous
 62
         7
100
AcDbLine
 10
46.3941345559
 20
74.3364338451
 30
0.0
 11
46.3489201368
 21
71.7461015117
 31
0.0
  0
LINE
  5
2E8
100
AcDbEntity
  8
0
370
        15
390
0
  6
Continuous
 62
         7
100
AcDbLine
 10
46.3489201368
 20
71.7461015117
 30
0.0
 11
46.0370340949
 21
71.6788154408
 31
0.0
  0
ARC
  5
2E9
100
AcDbEntity
  8
0
370
        15
390
0
  6
Continuous
 62
         7
100
AcDbCircle
 10
36.7740617153
 20
67.5878396997
 30
0.0
 40
10.1261414083
100
AcDbArc
 50
23.8285675471
 51
162.0268422122
  0
ARC
  5
2EA
100
AcDbEntity
  8
0
370
        15
390
0
  6
Continuous
 62
         7
100
AcDbCircle
 10
27.7331535472
 20
65.1771119582
 30
0.0
 40
5.5668354698
100
AcDbArc
 50
96.0951858407
 51
101.4391023428
  0
LINE
  5
2EB
100
AcDbEntity
  8
0
370
        15
390
0
  6
Continuous
 62
         7
100
AcDbLine
 10
26.6291036953
 20
70.6333680988
 30
0.0
 11
25.9605405138
 21
72.1875226912
 31
0.0
  0
ARC
  5
2EC
100
AcDbEntity
  8
0
370
        15
390
0
  6
Continuous
 62
         7
100
AcDbCircle
 10
36.7740617153
 20
67.5878396997
 30
0.0
 40
11.7511414083
100
AcDbArc
 50
138.8139865811
 51
156.9568437605
  0
LINE
  5
2ED
100
AcDbEntity
  8
0
370
        15
390
0
  6
Continuous
 62
         7
100
AcDbLine
 10
27.9304384744
 20
75.3260340867
 30
0.0
 11
27.9038137865
 21
73.8007067376
 31
0.0
  0
ARC
  5
2EE
100
AcDbEntity
  8
0
370
        15
390
0
  6
Continuous
 62
         7
100
AcDbCircle
 10
27.937473677
 20
73.800119202
 30
0.0
 40
0.0336650179
100
AcDbArc
 50
179.0
 51
358.9999999997
  0
LINE
  5
2EF
100
AcDbEntity
  8
0
370
        15
390
0
  6
Continuous
 62
         7
100
AcDbLine
 10
27.9711335676
 20
73.7995316664
 30
0.0
 11
27.9991370533
 21
75.4038502918
 31
0.0
  0
ARC
  5
2F0
100
AcDbEntity
  8
0
370
        15
390
0
  6
Continuous
 62
         7
100
AcDbCircle
 10
36.7740617153
 20
67.5878396997
 30
0.0
 40
11.7511414083
100
AcDbArc
 50
108.9056736012
 51
138.3078709625
  0
LINE
  5
2F1
100
AcDbEntity
  8
0
370
        15
390
0
  6
Continuous
 62
         7
100
AcDbLine
 10
33.1509196947
 20
75.1417406158
 30
0.0
 11
32.678379115
 21
74.1410027246
 31
0.0
  0
ARC
  5
2F2
100
AcDbEntity
  8
0
370
        15
390
0
  6
Continuous
 62
         7
100
AcDbCircle
 10
32.7118671152
 20
74.1251899536
 30
0.0
 40
0.0370336318
100
AcDbArc
 50
154.7236864726
 51
334.7236864726
  0
LINE
  5
2F3
100
AcDbEntity
  8
0
370
        15
390
0
  6
Continuous
 62
         7
100
AcDbLine
 10
32.7453551155
 20
74.1093771827
 30
0.0
 11
33.2483628837
 21
75.1746379344
 31
0.0
  0
ARC
  5
2F4
100
AcDbEntity
  8
0
370
        15
390
0
  6
Continuous
 62
         7
100
AcDbCircle
 10
36.9584199586
 20
64.0245347556
 30
0.0
 40
11.7511414083
100
AcDbArc
 50
76.4385360035
 51
108.4042167057
  0
LINE
  5
2F5
100
AcDbEntity
  8
0
370
        15
390
0
  6
Continuous
 62
         7
100
AcDbLine
 10
39.0166947944
 20
74.7804201393
 30
0.0
 11
39.7139255805
 21
75.4480417987
 31
0.0
  0
ARC
  5
2F6
100
AcDbEntity
  8
0
370
        15
390
0
  6
Continuous
 62
         7
100
AcDbCircle
 10
39.0498543357
 20
74.745789967
 30
0.0
 40
0.0479458445
100
AcDbArc
 50
133.7572195533
 51
313.7572195533
  0
LINE
  5
2F7
100
AcDbEntity
  8
0
370
        15
390
0
  6
Continuous
 62
         7
100
AcDbLine
 10
39.8242061224
 20
75.4208760132
 30
0.0
 11
39.083013877
 21
74.7111597948
 31
0.0
  0
ARC
  5
2F8
100
AcDbEntity
  8
0
370
        15
390
0
  6
Continuous
 62
         7
100
AcDbCircle
 10
36.9584199586
 20
64.0245347556
 30
0.0
 40
11.7511414083
100
AcDbArc
 50
47.6749951142
 51
75.8847584024
  0
LINE
  5
2F9
100
AcDbEntity
  8
0
370
        15
390
0
  6
Continuous
 62
         7
100
AcDbLine
 10
44.8708775487
 20
72.7125920345
 30
0.0
 11
44.0887918336
 21
72.320474787
 31
0.0
  0
ARC
  5
2FA
100
AcDbEntity
  8
0
370
        15
390
0
  6
Continuous
 62
         7
100
AcDbCircle
 10
44.1214199172
 20
72.25539742
 30
0.0
 40
0.0727987331
100
AcDbArc
 50
116.6279846112
 51
296.6279846112
  0
LINE
  5
2FB
100
AcDbEntity
  8
0
370
        15
390
0
  6
Continuous
 62
         7
100
AcDbLine
 10
44.1540480007
 20
72.1903200529
 30
0.0
 11
44.9852311134
 21
72.6070534467
 31
0.0
  0
ARC
  5
2FC
100
AcDbEntity
  8
0
370
        15
390
0
  6
Continuous
 62
         7
100
AcDbCircle
 10
36.9584199586
 20
64.0245347556
 30
0.0
 40
11.7511414083
100
AcDbArc
 50
35.0501111125
 51
46.9162617761
  0
LINE
  5
2FD
100
AcDbEntity
  8
0
370
        15
390
0
  6
Continuous
 62
         7
100
AcDbLine
 10
46.5784927992
 20
70.7731289009
 30
0.0
 11
46.5332783801
 21
68.1827965675
 31
0.0
  0
LINE
  5
2FE
100
AcDbEntity
  8
0
370
        15
390
0
  6
Continuous
 62
         7
100
AcDbLine
 10
46.5332783801
 20
68.1827965675
 30
0.0
 11
46.2213923382
 21
68.1155104967
 31
0.0
  0
ARC
  5
2FF
100
AcDbEntity
  8
0
370
        15
390
0
  6
Continuous
 62
         7
100
AcDbCircle
 10
36.9584199586
 20
64.0245347556
 30
0.0
 40
10.1261414083
100
AcDbArc
 50
23.8285675471
 51
162.0268422122
  0
ARC
  5
300
100
AcDbEntity
  8
0
370
        15
390
0
  6
Continuous
 62
         7
100
AcDbCircle
 10
27.9175117905
 20
61.613807014
 30
0.0
 40
5.5668354698
100
AcDbArc
 50
96.0951858408
 51
101.4391023428
  0
LINE
  5
301
100
AcDbEntity
  8
0
370
        15
390
0
  6
Continuous
 62
         7
100
AcDbLine
 10
26.8134619386
 20
67.0700631547
 30
0.0
 11
26.1448987571
 21
68.624217747
 31
0.0
  0
ARC
  5
302
100
AcDbEntity
  8
0
370
        15
390
0
  6
Continuous
 62
         7
100
AcDbCircle
 10
36.9584199586
 20
64.0245347556
 30
0.0
 40
11.7511414083
100
AcDbArc
 50
138.8139865811
 51
156.9568437605
  0
LINE
  5
303
100
AcDbEntity
  8
0
370
        15
390
0
  6
Continuous
 62
         7
100
AcDbLine
 10
28.1147967177
 20
71.7627291426
 30
0.0
 11
28.0881720298
 21
70.2374017935
 31
0.0
  0
ARC
  5
304
100
AcDbEntity
  8
0
370
        15
390
0
  6
Continuous
 62
         7
100
AcDbCircle
 10
28.1218319203
 20
70.2368142579
 30
0.0
 40
0.0336650179
100
AcDbArc
 50
179.0
 51
358.9999999996
  0
LINE
  5
305
100
AcDbEntity
  8
0
370
        15
390
0
  6
Continuous
 62
         7
100
AcDbLine
 10
28.1554918109
 20
70.2362267223
 30
0.0
 11
28.1834952967
 21
71.8405453476
 31
0.0
  0
ARC
  5
306
100
AcDbEntity
  8
0
370
        15
390
0
  6
Continuous
 62
         7
100
AcDbCircle
 10
36.9584199586
 20
64.0245347556
 30
0.0
 40
11.7511414083
100
AcDbArc
 50
108.9056736012
 51
138.3078709625
  0
LINE
  5
307
100
AcDbEntity
  8
0
370
        15
390
0
  6
Continuous
 62
         7
100
AcDbLine
 10
33.3568910788
 20
71.705759238
 30
0.0
 11
32.884350499
 21
70.7050213468
 31
0.0
  0
ARC
  5
308
100
AcDbEntity
  8
0
370
        15
390
0
  6
Continuous
 62
         7
100
AcDbCircle
 10
32.9178384993
 20
70.6892085758
 30
0.0
 40
0.0370336318
100
AcDbArc
 50
154.7236864726
 51
334.7236864726
  0
LINE
  5
309
100
AcDbEntity
  8
0
370
        15
390
0
  6
Continuous
 62
         7
100
AcDbLine
 10
32.9513264995
 20
70.6733958049
 30
0.0
 11
33.4543342678
 21
71.7386565566
 31
0.0
  0
ARC
  5
30A
100
AcDbEntity
  8
0
370
        15
390
0
  6
Continuous
 62
         7
100
AcDbCircle
 10
37.1643913426
 20
60.5885533778
 30
0.0
 40
11.7511414083
100
AcDbArc
 50
76.4385360035
 51
108.4042167057
  0
LINE
  5
30B
100
AcDbEntity
  8
0
370
        15
390
0
  6
Continuous
 62
         7
100
AcDbLine
 10
39.2226661784
 20
71.3444387615
 30
0.0
 11
39.9198969646
 21
72.012060421
 31
0.0
  0
ARC
  5
30C
100
AcDbEntity
  8
0
370
        15
390
0
  6
Continuous
 62
         7
100
AcDbCircle
 10
39.2558257197
 20
71.3098085893
 30
0.0
 40
0.0479458445
100
AcDbArc
 50
133.7572195533
 51
313.7572195533
  0
LINE
  5
30D
100
AcDbEntity
  8
0
370
        15
390
0
  6
Continuous
 62
         7
100
AcDbLine
 10
40.0301775065
 20
71.9848946354
 30
0.0
 11
39.288985261
 21
71.275178417
 31
0.0
  0
ARC
  5
30E
100
AcDbEntity
  8
0
370
        15
390
0
  6
Continuous
 62
         7
100
AcDbCircle
 10
37.1643913426
 20
60.5885533778
 30
0.0
 40
11.7511414083
100
AcDbArc
 50
47.6749951142
 51
75.8847584024
  0
LINE
  5
30F
100
AcDbEntity
  8
0
370
        15
390
0
  6
Continuous
 62
         7
100
AcDbLine
 10
45.0768489328
 20
69.2766106567
 30
0.0
 11
44.2947632177
 21
68.8844934092
 31
0.0
  0
ARC
  5
310
100
AcDbEntity
  8
0
370
        15
390
0
  6
Continuous
 62
         7
100
AcDbCircle
 10
44.3273913012
 20
68.8194160422
 30
0.0
 40
0.0727987331
100
AcDbArc
 50
116.6279846112
 51
296.6279846112
  0
LINE
  5
311
100
AcDbEntity
  8
0
370
        15
390
0
  6
Continuous
 62
         7
100
AcDbLine
 10
44.3600193848
 20
68.7543386751
 30
0.0
 11
45.1912024974
 21
69.1710720689
 31
0.0
  0
ARC
  5
312
100
AcDbEntity
  8
0
370
        15
390
0
  6
Continuous
 62
         7
100
AcDbCircle
 10
37.1643913426
 20
60.5885533778
 30
0.0
 40
11.7511414083
100
AcDbArc
 50
35.0501111125
 51
46.9162617761
  0
LINE
  5
313
100
AcDbEntity
  8
0
370
        15
390
0
  6
Continuous
 62
         7
100
AcDbLine
 10
46.7844641833
 20
67.3371475231
 30
0.0
 11
46.7392497642
 21
64.7468151897
 31
0.0
  0
LINE
  5
314
100
AcDbEntity
  8
0
370
        15
390
0
  6
Continuous
 62
         7
100
AcDbLine
 10
46.7392497642
 20
64.7468151897
 30
0.0
 11
46.4273637223
 21
64.6795291189
 31
0.0
  0
ARC
  5
315
100
AcDbEntity
  8
0
370
        15
390
0
  6
Continuous
 62
         7
100
AcDbCircle
 10
37.1643913426
 20
60.5885533778
 30
0.0
 40
10.1261414083
100
AcDbArc
 50
23.8285675471
 51
162.0268422122
  0
ARC
  5
316
100
AcDbEntity
  8
0
370
        15
390
0
  6
Continuous
 62
         7
100
AcDbCircle
 10
28.1234831745
 20
58.1778256363
 30
0.0
 40
5.5668354698
100
AcDbArc
 50
96.0951858407
 51
101.4391023429
  0
LINE
  5
317
100
AcDbEntity
  8
0
370
        15
390
0
  6
Continuous
 62
         7
100
AcDbLine
 10
27.0194333226
 20
63.6340817769
 30
0.0
 11
26.3508701411
 21
65.1882363692
 31
0.0
  0
ARC
  5
318
100
AcDbEntity
  8
0
370
        15
390
0
  6
Continuous
 62
         7
100
AcDbCircle
 10
37.1643913426
 20
60.5885533778
 30
0.0
 40
11.7511414083
100
AcDbArc
 50
138.8139865811
 51
156.9568437605
  0
LINE
  5
319
100
AcDbEntity
  8
0
370
        15
390
0
  6
Continuous
 62
         7
100
AcDbLine
 10
28.3207681018
 20
68.3267477648
 30
0.0
 11
28.2941434138
 21
66.8014204157
 31
0.0
  0
ARC
  5
31A
100
AcDbEntity
  8
0
370
        15
390
0
  6
Continuous
 62
         7
100
AcDbCircle
 10
28.3278033044
 20
66.8008328801
 30
0.0
 40
0.0336650179
100
AcDbArc
 50
179.0
 51
358.9999999997
  0
LINE
  5
31B
100
AcDbEntity
  8
0
370
        15
390
0
  6
Continuous
 62
         7
100
AcDbLine
 10
28.3614631949
 20
66.8002453445
 30
0.0
 11
28.3894666807
 21
68.4045639698
 31
0.0
  0
ARC
  5
31C
100
AcDbEntity
  8
0
370
        15
390
0
  6
Continuous
 62
         7
100
AcDbCircle
 10
37.1643913426
 20
60.5885533778
 30
0.0
 40
11.7511414083
100
AcDbArc
 50
108.9056736012
 51
138.3078709625
  0
LINE
  5
31D
100
AcDbEntity
  8
0
370
        15
390
0
  6
Continuous
 62
         7
100
AcDbLine
 10
33.1669269597
 20
67.7175716628
 30
0.0
 11
32.6943863799
 21
66.7168337716
 31
0.0
  0
ARC
  5
31E
100
AcDbEntity
  8
0
370
        15
390
0
  6
Continuous
 62
         7
100
AcDbCircle
 10
32.7278743802
 20
66.7010210006
 30
0.0
 40
0.0370336318
100
AcDbArc
 50
154.7236864726
 51
334.7236864726
  0
LINE
  5
31F
100
AcDbEntity
  8
0
370
        15
390
0
  6
Continuous
 62
         7
100
AcDbLine
 10
32.7613623804
 20
66.6852082297
 30
0.0
 11
33.2643701486
 21
67.7504689815
 31
0.0
  0
ARC
  5
320
100
AcDbEntity
  8
0
370
        15
390
0
  6
Continuous
 62
         7
100
AcDbCircle
 10
36.9744272235
 20
56.6003658026
 30
0.0
 40
11.7511414083
100
AcDbArc
 50
76.4385360035
 51
108.4042167057
  0
LINE
  5
321
100
AcDbEntity
  8
0
370
        15
390
0
  6
Continuous
 62
         7
100
AcDbLine
 10
39.0327020593
 20
67.3562511863
 30
0.0
 11
39.7299328455
 21
68.0238728458
 31
0.0
  0
ARC
  5
322
100
AcDbEntity
  8
0
370
        15
390
0
  6
Continuous
 62
         7
100
AcDbCircle
 10
39.0658616006
 20
67.3216210141
 30
0.0
 40
0.0479458445
100
AcDbArc
 50
133.7572195533
 51
313.7572195533
  0
LINE
  5
323
100
AcDbEntity
  8
0
370
        15
390
0
  6
Continuous
 62
         7
100
AcDbLine
 10
39.8402133874
 20
67.9967070603
 30
0.0
 11
39.0990211419
 21
67.2869908419
 31
0.0
  0
ARC
  5
324
100
AcDbEntity
  8
0
370
        15
390
0
  6
Continuous
 62
         7
100
AcDbCircle
 10
36.9744272235
 20
56.6003658026
 30
0.0
 40
11.7511414083
100
AcDbArc
 50
47.6749951142
 51
75.8847584024
  0
LINE
  5
325
100
AcDbEntity
  8
0
370
        15
390
0
  6
Continuous
 62
         7
100
AcDbLine
 10
44.8868848137
 20
65.2884230815
 30
0.0
 11
44.1047990986
 21
64.8963058341
 31
0.0
  0
ARC
  5
326
100
AcDbEntity
  8
0
370
        15
390
0
  6
Continuous
 62
         7
100
AcDbCircle
 10
44.1374271821
 20
64.831228467
 30
0.0
 40
0.0727987331
100
AcDbArc
 50
116.6279846112
 51
296.6279846112
  0
LINE
  5
327
100
AcDbEntity
  8
0
370
        15
390
0
  6
Continuous
 62
         7
100
AcDbLine
 10
44.1700552656
 20
64.7661510999
 30
0.0
 11
45.0012383783
 21
65.1828844937
 31
0.0
  0
ARC
  5
328
100
AcDbEntity
  8
0
370
        15
390
0
  6
Continuous
 62
         7
100
AcDbCircle
 10
36.9744272235
 20
56.6003658026
 30
0.0
 40
11.7511414083
100
AcDbArc
 50
35.0501111125
 51
46.9162617761
  0
LINE
  5
329
100
AcDbEntity
  8
0
370
        15
390
0
  6
Continuous
 62
         7
100
AcDbLine
 10
46.5945000641
 20
63.348959948
 30
0.0
 11
46.5492856451
 21
60.7586276146
 31
0.0
  0
LINE
  5
32A
100
AcDbEntity
  8
0
370
        15
390
0
  6
Continuous
 62
         7
100
AcDbLine
 10
46.5492856451
 20
60.7586276146
 30
0.0
 11
46.2373996032
 21
60.6913415437
 31
0.0
  0
ARC
  5
32B
100
AcDbEntity
  8
0
370
        15
390
0
  6
Continuous
 62
         7
100
AcDbCircle
 10
36.9744272235
 20
56.6003658026
 30
0.0
 40
10.1261414083
100
AcDbArc
 50
23.8285675471
 51
162.0268422122
  0
ARC
  5
32C
100
AcDbEntity
  8
0
370
        15
390
0
  6
Continuous
 62
         7
100
AcDbCircle
 10
27.9335190554
 20
54.189638061
 30
0.0
 40
5.5668354699
100
AcDbArc
 50
96.0951858408
 51
101.4391023428
  0
LINE
  5
32D
100
AcDbEntity
  8
0
370
        15
390
0
  6
Continuous
 62
         7
100
AcDbLine
 10
26.8294692035
 20
59.6458942017
 30
0.0
 11
26.160906022
 21
61.2000487941
 31
0.0
  0
ARC
  5
32E
100
AcDbEntity
  8
0
370
        15
390
0
  6
Continuous
 62
         7
100
AcDbCircle
 10
36.9744272235
 20
56.6003658026
 30
0.0
 40
11.7511414083
100
AcDbArc
 50
138.8139865811
 51
156.9568437605
  0
LINE
  5
32F
100
AcDbEntity
  8
0
370
        15
390
0
  6
Continuous
 62
         7
100
AcDbLine
 10
28.1308039826
 20
64.3385601896
 30
0.0
 11
28.1041792947
 21
62.8132328405
 31
0.0
  0
ARC
  5
330
100
AcDbEntity
  8
0
370
        15
390
0
  6
Continuous
 62
         7
100
AcDbCircle
 10
28.1378391853
 20
62.8126453049
 30
0.0
 40
0.0336650179
100
AcDbArc
 50
179.0
 51
359.0
  0
LINE
  5
331
100
AcDbEntity
  8
0
370
        15
390
0
  6
Continuous
 62
         7
100
AcDbLine
 10
28.1714990758
 20
62.8120577693
 30
0.0
 11
28.1995025616
 21
64.4163763947
 31
0.0
  0
ARC
  5
332
100
AcDbEntity
  8
0
370
        15
390
0
  6
Continuous
 62
         7
100
AcDbCircle
 10
36.9744272235
 20
56.6003658026
 30
0.0
 40
11.7511414083
100
AcDbArc
 50
108.9056736012
 51
138.3078709625
  0
LINE
  5
333
100
AcDbEntity
  8
0
370
        15
390
0
  6
Continuous
 62
         7
100
AcDbLine
 10
12.6591261127
 20
46.9772770106
 30
0.0
 11
12.186585533
 21
45.9765391193
 31
0.0
  0
ARC
  5
334
100
AcDbEntity
  8
0
370
        15
390
0
  6
Continuous
 62
         7
100
AcDbCircle
 10
12.2200735332
 20
45.9607263484
 30
0.0
 40
0.0370336318
100
AcDbArc
 50
154.7236864726
 51
334.7236864726
  0
LINE
  5
335
100
AcDbEntity
  8
0
370
        15
390
0
  6
Continuous
 62
         7
100
AcDbLine
 10
12.2535615335
 20
45.9449135774
 30
0.0
 11
12.7565693017
 21
47.0101743292
 31
0.0
  0
ARC
  5
336
100
AcDbEntity
  8
0
370
        15
390
0
  6
Continuous
 62
         7
100
AcDbCircle
 10
16.4666263766
 20
35.8600711504
 30
0.0
 40
11.7511414083
100
AcDbArc
 50
76.4385360035
 51
108.4042167057
  0
LINE
  5
337
100
AcDbEntity
  8
0
370
        15
390
0
  6
Continuous
 62
         7
100
AcDbLine
 10
18.5249012124
 20
46.615956534
 30
0.0
 11
19.2221319985
 21
47.2835781935
 31
0.0
  0
ARC
  5
338
100
AcDbEntity
  8
0
370
        15
390
0
  6
Continuous
 62
         7
100
AcDbCircle
 10
18.5580607537
 20
46.5813263618
 30
0.0
 40
0.0479458445
100
AcDbArc
 50
133.7572195533
 51
313.7572195533
  0
LINE
  5
339
100
AcDbEntity
  8
0
370
        15
390
0
  6
Continuous
 62
         7
100
AcDbLine
 10
19.3324125404
 20
47.256412408
 30
0.0
 11
18.591220295
 21
46.5466961896
 31
0.0
  0
ARC
  5
33A
100
AcDbEntity
  8
0
370
        15
390
0
  6
Continuous
 62
         7
100
AcDbCircle
 10
16.4666263766
 20
35.8600711504
 30
0.0
 40
11.7511414083
100
AcDbArc
 50
47.6749951142
 51
75.8847584024
  0
LINE
  5
33B
100
AcDbEntity
  8
0
370
        15
390
0
  6
Continuous
 62
         7
100
AcDbLine
 10
24.3790839667
 20
44.5481284293
 30
0.0
 11
23.5969982516
 21
44.1560111818
 31
0.0
  0
ARC
  5
33C
100
AcDbEntity
  8
0
370
        15
390
0
  6
Continuous
 62
         7
100
AcDbCircle
 10
23.6296263352
 20
44.0909338147
 30
0.0
 40
0.0727987331
100
AcDbArc
 50
116.6279846112
 51
296.6279846112
  0
LINE
  5
33D
100
AcDbEntity
  8
0
370
        15
390
0
  6
Continuous
 62
         7
100
AcDbLine
 10
23.6622544187
 20
44.0258564477
 30
0.0
 11
24.4934375314
 21
44.4425898415
 31
0.0
  0
ARC
  5
33E
100
AcDbEntity
  8
0
370
        15
390
0
  6
Continuous
 62
         7
100
AcDbCircle
 10
16.4666263766
 20
35.8600711504
 30
0.0
 40
11.7511414083
100
AcDbArc
 50
35.0501111125
 51
46.9162617761
  0
LINE
  5
33F
100
AcDbEntity
  8
0
370
        15
390
0
  6
Continuous
 62
         7
100
AcDbLine
 10
26.0866992172
 20
42.6086652957
 30
0.0
 11
26.0414847981
 21
40.0183329623
 31
0.0
  0
LINE
  5
340
100
AcDbEntity
  8
0
370
        15
390
0
  6
Continuous
 62
         7
100
AcDbLine
 10
26.0414847981
 20
40.0183329623
 30
0.0
 11
25.7295987562
 21
39.9510468914
 31
0.0
  0
ARC
  5
341
100
AcDbEntity
  8
0
370
        15
390
0
  6
Continuous
 62
         7
100
AcDbCircle
 10
16.4666263766
 20
35.8600711504
 30
0.0
 40
10.1261414083
100
AcDbArc
 50
23.8285675471
 51
162.0268422122
  0
ARC
  5
342
100
AcDbEntity
  8
0
370
        15
390
0
  6
Continuous
 62
         7
100
AcDbCircle
 10
7.4257182085
 20
33.4493434088
 30
0.0
 40
5.5668354698
100
AcDbArc
 50
96.0951858408
 51
101.4391023429
  0
LINE
  5
343
100
AcDbEntity
  8
0
370
        15
390
0
  6
Continuous
 62
         7
100
AcDbLine
 10
6.3216683566
 20
38.9055995495
 30
0.0
 11
5.6531051751
 21
40.4597541418
 31
0.0
  0
ARC
  5
344
100
AcDbEntity
  8
0
370
        15
390
0
  6
Continuous
 62
         7
100
AcDbCircle
 10
16.4666263766
 20
35.8600711504
 30
0.0
 40
11.7511414083
100
AcDbArc
 50
138.8139865811
 51
156.9568437605
  0
LINE
  5
345
100
AcDbEntity
  8
0
370
        15
390
0
  6
Continuous
 62
         7
100
AcDbLine
 10
7.6230031357
 20
43.5982655374
 30
0.0
 11
7.5963784478
 21
42.0729381882
 31
0.0
  0
ARC
  5
346
100
AcDbEntity
  8
0
370
        15
390
0
  6
Continuous
 62
         7
100
AcDbCircle
 10
7.6300383383
 20
42.0723506527
 30
0.0
 40
0.0336650179
100
AcDbArc
 50
179.0
 51
359.0
  0
LINE
  5
347
100
AcDbEntity
  8
0
370
        15
390
0
  6
Continuous
 62
         7
100
AcDbLine
 10
7.6636982289
 20
42.0717631171
 30
0.0
 11
7.6917017147
 21
43.6760817424
 31
0.0
  0
ARC
  5
348
100
AcDbEntity
  8
0
370
        15
390
0
  6
Continuous
 62
         7
100
AcDbCircle
 10
16.4666263766
 20
35.8600711504
 30
0.0
 40
11.7511414083
100
AcDbArc
 50
108.9056736012
 51
138.3078709625
  0
LINE
  5
349
100
AcDbEntity
  8
0
370
        15
390
0
  6
Continuous
 62
         7
100
AcDbLine
 10
12.2811840287
 20
51.1787655829
 30
0.0
 11
11.8086434489
 21
50.1780276917
 31
0.0
  0
ARC
  5
34A
100
AcDbEntity
  8
0
370
        15
390
0
  6
Continuous
 62
         7
100
AcDbCircle
 10
11.8421314492
 20
50.1622149207
 30
0.0
 40
0.0370336318
100
AcDbArc
 50
154.7236864726
 51
334.7236864726
  0
LINE
  5
34B
100
AcDbEntity
  8
0
370
        15
390
0
  6
Continuous
 62
         7
100
AcDbLine
 10
11.8756194495
 20
50.1464021498
 30
0.0
 11
12.3786272177
 21
51.2116629015
 31
0.0
  0
ARC
  5
34C
100
AcDbEntity
  8
0
370
        15
390
0
  6
Continuous
 62
         7
100
AcDbCircle
 10
16.0886842926
 20
40.0615597227
 30
0.0
 40
11.7511414083
100
AcDbArc
 50
76.4385360035
 51
108.4042167057
  0
LINE
  5
34D
100
AcDbEntity
  8
0
370
        15
390
0
  6
Continuous
 62
         7
100
AcDbLine
 10
18.1469591283
 20
50.8174451064
 30
0.0
 11
18.8441899145
 21
51.4850667659
 31
0.0
  0
ARC
  5
34E
100
AcDbEntity
  8
0
370
        15
390
0
  6
Continuous
 62
         7
100
AcDbCircle
 10
18.1801186696
 20
50.7828149342
 30
0.0
 40
0.0479458445
100
AcDbArc
 50
133.7572195533
 51
313.7572195533
  0
LINE
  5
34F
100
AcDbEntity
  8
0
370
        15
390
0
  6
Continuous
 62
         7
100
AcDbLine
 10
18.9544704564
 20
51.4579009803
 30
0.0
 11
18.2132782109
 21
50.7481847619
 31
0.0
  0
ARC
  5
350
100
AcDbEntity
  8
0
370
        15
390
0
  6
Continuous
 62
         7
100
AcDbCircle
 10
16.0886842926
 20
40.0615597227
 30
0.0
 40
11.7511414083
100
AcDbArc
 50
47.6749951142
 51
75.8847584024
  0
LINE
  5
351
100
AcDbEntity
  8
0
370
        15
390
0
  6
Continuous
 62
         7
100
AcDbLine
 10
24.0011418827
 20
48.7496170016
 30
0.0
 11
23.2190561676
 21
48.3574997541
 31
0.0
  0
ARC
  5
352
100
AcDbEntity
  8
0
370
        15
390
0
  6
Continuous
 62
         7
100
AcDbCircle
 10
23.2516842511
 20
48.2924223871
 30
0.0
 40
0.0727987331
100
AcDbArc
 50
116.6279846112
 51
296.6279846112
  0
LINE
  5
353
100
AcDbEntity
  8
0
370
        15
390
0
  6
Continuous
 62
         7
100
AcDbLine
 10
23.2843123347
 20
48.22734502
 30
0.0
 11
24.1154954473
 21
48.6440784138
 31
0.0
  0
ARC
  5
354
100
AcDbEntity
  8
0
370
        15
390
0
  6
Continuous
 62
         7
100
AcDbCircle
 10
16.0886842926
 20
40.0615597227
 30
0.0
 40
11.7511414083
100
AcDbArc
 50
35.0501111125
 51
46.9162617761
  0
LINE
  5
355
100
AcDbEntity
  8
0
370
        15
390
0
  6
Continuous
 62
         7
100
AcDbLine
 10
25.7087571332
 20
46.810153868
 30
0.0
 11
25.6635427141
 21
44.2198215347
 31
0.0
  0
LINE
  5
356
100
AcDbEntity
  8
0
370
        15
390
0
  6
Continuous
 62
         7
100
AcDbLine
 10
25.6635427141
 20
44.2198215347
 30
0.0
 11
25.3516566722
 21
44.1525354638
 31
0.0
  0
ARC
  5
357
100
AcDbEntity
  8
0
370
        15
390
0
  6
Continuous
 62
         7
100
AcDbCircle
 10
16.0886842926
 20
40.0615597227
 30
0.0
 40
10.1261414083
100
AcDbArc
 50
23.8285675471
 51
162.0268422122
  0
ARC
  5
358
100
AcDbEntity
  8
0
370
        15
390
0
  6
Continuous
 62
         7
100
AcDbCircle
 10
7.0477761245
 20
37.6508319811
 30
0.0
 40
5.5668354698
100
AcDbArc
 50
96.0951858408
 51
101.4391023428
  0
LINE
  5
359
100
AcDbEntity
  8
0
370
        15
390
0
  6
Continuous
 62
         7
100
AcDbLine
 10
5.9437262725
 20
43.1070881218
 30
0.0
 11
5.2751630911
 21
44.6612427142
 31
0.0
  0
ARC
  5
35A
100
AcDbEntity
  8
0
370
        15
390
0
  6
Continuous
 62
         7
100
AcDbCircle
 10
16.0886842926
 20
40.0615597227
 30
0.0
 40
11.7511414083
100
AcDbArc
 50
138.8139865811
 51
156.9568437605
  0
LINE
  5
35B
100
AcDbEntity
  8
0
370
        15
390
0
  6
Continuous
 62
         7
100
AcDbLine
 10
7.2450610517
 20
47.7997541097
 30
0.0
 11
7.2184363638
 21
46.2744267606
 31
0.0
  0
ARC
  5
35C
100
AcDbEntity
  8
0
370
        15
390
0
  6
Continuous
 62
         7
100
AcDbCircle
 10
7.2520962543
 20
46.273839225
 30
0.0
 40
0.0336650179
100
AcDbArc
 50
179.0
 51
359.0
  0
LINE
  5
35D
100
AcDbEntity
  8
0
370
        15
390
0
  6
Continuous
 62
         7
100
AcDbLine
 10
7.2857561449
 20
46.2732516894
 30
0.0
 11
7.3137596306
 21
47.8775703147
 31
0.0
  0
ARC
  5
35E
100
AcDbEntity
  8
0
370
        15
390
0
  6
Continuous
 62
         7
100
AcDbCircle
 10
16.0886842926
 20
40.0615597227
 30
0.0
 40
11.7511414083
100
AcDbArc
 50
108.9056736012
 51
138.3078709625
  0
LINE
  5
35F
100
AcDbEntity
  8
0
370
        15
390
0
  6
Continuous
 62
         7
100
AcDbLine
 10
12.173585538
 20
55.3523140908
 30
0.0
 11
11.7010449582
 21
54.3515761996
 31
0.0
  0
ARC
  5
360
100
AcDbEntity
  8
0
370
        15
390
0
  6
Continuous
 62
         7
100
AcDbCircle
 10
11.7345329585
 20
54.3357634286
 30
0.0
 40
0.0370336318
100
AcDbArc
 50
154.7236864726
 51
334.7236864726
  0
LINE
  5
361
100
AcDbEntity
  8
0
370
        15
390
0
  6
Continuous
 62
         7
100
AcDbLine
 10
11.7680209587
 20
54.3199506577
 30
0.0
 11
12.271028727
 21
55.3852114095
 31
0.0
  0
ARC
  5
362
100
AcDbEntity
  8
0
370
        15
390
0
  6
Continuous
 62
         7
100
AcDbCircle
 10
15.9810858018
 20
44.2351082306
 30
0.0
 40
11.7511414083
100
AcDbArc
 50
76.4385360035
 51
108.4042167057
  0
LINE
  5
363
100
AcDbEntity
  8
0
370
        15
390
0
  6
Continuous
 62
         7
100
AcDbLine
 10
18.0393606376
 20
54.9909936143
 30
0.0
 11
18.7365914238
 21
55.6586152738
 31
0.0
  0
ARC
  5
364
100
AcDbEntity
  8
0
370
        15
390
0
  6
Continuous
 62
         7
100
AcDbCircle
 10
18.0725201789
 20
54.9563634421
 30
0.0
 40
0.0479458445
100
AcDbArc
 50
133.7572195533
 51
313.7572195533
  0
LINE
  5
365
100
AcDbEntity
  8
0
370
        15
390
0
  6
Continuous
 62
         7
100
AcDbLine
 10
18.8468719657
 20
55.6314494883
 30
0.0
 11
18.1056797202
 21
54.9217332698
 31
0.0
  0
ARC
  5
366
100
AcDbEntity
  8
0
370
        15
390
0
  6
Continuous
 62
         7
100
AcDbCircle
 10
15.9810858018
 20
44.2351082306
 30
0.0
 40
11.7511414083
100
AcDbArc
 50
47.6749951142
 51
75.8847584024
  0
LINE
  5
367
100
AcDbEntity
  8
0
370
        15
390
0
  6
Continuous
 62
         7
100
AcDbLine
 10
23.893543392
 20
52.9231655095
 30
0.0
 11
23.1114576769
 21
52.5310482621
 31
0.0
  0
ARC
  5
368
100
AcDbEntity
  8
0
370
        15
390
0
  6
Continuous
 62
         7
100
AcDbCircle
 10
23.1440857604
 20
52.465970895
 30
0.0
 40
0.0727987331
100
AcDbArc
 50
116.6279846112
 51
296.6279846112
  0
LINE
  5
369
100
AcDbEntity
  8
0
370
        15
390
0
  6
Continuous
 62
         7
100
AcDbLine
 10
23.1767138439
 20
52.4008935279
 30
0.0
 11
24.0078969566
 21
52.8176269217
 31
0.0
  0
ARC
  5
36A
100
AcDbEntity
  8
0
370
        15
390
0
  6
Continuous
 62
         7
100
AcDbCircle
 10
15.9810858018
 20
44.2351082306
 30
0.0
 40
11.7511414083
100
AcDbArc
 50
35.0501111125
 51
46.9162617761
  0
LINE
  5
36B
100
AcDbEntity
  8
0
370
        15
390
0
  6
Continuous
 62
         7
100
AcDbLine
 10
25.6011586425
 20
50.9837023759
 30
0.0
 11
25.5559442234
 21
48.3933700426
 31
0.0
  0
LINE
  5
36C
100
AcDbEntity
  8
0
370
        15
390
0
  6
Continuous
 62
         7
100
AcDbLine
 10
25.5559442234
 20
48.3933700426
 30
0.0
 11
25.2440581815
 21
48.3260839717
 31
0.0
  0
ARC
  5
36D
100
AcDbEntity
  8
0
370
        15
390
0
  6
Continuous
 62
         7
100
AcDbCircle
 10
15.9810858018
 20
44.2351082306
 30
0.0
 40
10.1261414083
100
AcDbArc
 50
23.8285675471
 51
162.0268422122
  0
ARC
  5
36E
100
AcDbEntity
  8
0
370
        15
390
0
  6
Continuous
 62
         7
100
AcDbCircle
 10
6.9401776337
 20
41.824380489
 30
0.0
 40
5.5668354698
100
AcDbArc
 50
96.0951858408
 51
101.4391023429
  0
LINE
  5
36F
100
AcDbEntity
  8
0
370
        15
390
0
  6
Continuous
 62
         7
100
AcDbLine
 10
5.8361277818
 20
47.2806366297
 30
0.0
 11
5.1675646003
 21
48.8347912221
 31
0.0
  0
ARC
  5
370
100
AcDbEntity
  8
0
370
        15
390
0
  6
Continuous
 62
         7
100
AcDbCircle
 10
15.9810858018
 20
44.2351082306
 30
0.0
 40
11.7511414083
100
AcDbArc
 50
138.8139865811
 51
156.9568437605
  0
LINE
  5
371
100
AcDbEntity
  8
0
370
        15
390
0
  6
Continuous
 62
         7
100
AcDbLine
 10
7.137462561
 20
51.9733026176
 30
0.0
 11
7.110837873
 21
50.4479752685
 31
0.0
  0
ARC
  5
372
100
AcDbEntity
  8
0
370
        15
390
0
  6
Continuous
 62
         7
100
AcDbCircle
 10
7.1444977636
 20
50.4473877329
 30
0.0
 40
0.0336650179
100
AcDbArc
 50
179.0
 51
358.9999999999
  0
LINE
  5
373
100
AcDbEntity
  8
0
370
        15
390
0
  6
Continuous
 62
         7
100
AcDbLine
 10
7.1781576541
 20
50.4468001973
 30
0.0
 11
7.2061611399
 21
52.0511188227
 31
0.0
  0
ARC
  5
374
100
AcDbEntity
  8
0
370
        15
390
0
  6
Continuous
 62
         7
100
AcDbCircle
 10
15.9810858018
 20
44.2351082306
 30
0.0
 40
11.7511414083
100
AcDbArc
 50
108.9056736012
 51
138.3078709625
  0
LINE
  5
375
100
AcDbEntity
  8
0
370
        15
390
0
  6
Continuous
 62
         7
100
AcDbLine
 10
11.795527033
 20
59.361229431
 30
0.0
 11
11.3229864532
 21
58.3604915398
 31
0.0
  0
ARC
  5
376
100
AcDbEntity
  8
0
370
        15
390
0
  6
Continuous
 62
         7
100
AcDbCircle
 10
11.3564744535
 20
58.3446787688
 30
0.0
 40
0.0370336318
100
AcDbArc
 50
154.7236864726
 51
334.7236864726
  0
LINE
  5
377
100
AcDbEntity
  8
0
370
        15
390
0
  6
Continuous
 62
         7
100
AcDbLine
 10
11.3899624538
 20
58.3288659979
 30
0.0
 11
11.892970222
 21
59.3941267497
 31
0.0
  0
ARC
  5
378
100
AcDbEntity
  8
0
370
        15
390
0
  6
Continuous
 62
         7
100
AcDbCircle
 10
15.6030272969
 20
48.2440235708
 30
0.0
 40
11.7511414083
100
AcDbArc
 50
76.4385360035
 51
108.4042167057
  0
LINE
  5
379
100
AcDbEntity
  8
0
370
        15
390
0
  6
Continuous
 62
         7
100
AcDbLine
 10
17.6613021326
 20
58.9999089545
 30
0.0
 11
18.3585329188
 21
59.667530614
 31
0.0
  0
ARC
  5
37A
100
AcDbEntity
  8
0
370
        15
390
0
  6
Continuous
 62
         7
100
AcDbCircle
 10
17.6944616739
 20
58.9652787823
 30
0.0
 40
0.0479458445
100
AcDbArc
 50
133.7572195533
 51
313.7572195533
  0
LINE
  5
37B
100
AcDbEntity
  8
0
370
        15
390
0
  6
Continuous
 62
         7
100
AcDbLine
 10
18.4688134607
 20
59.6403648285
 30
0.0
 11
17.7276212152
 21
58.93064861
 31
0.0
  0
ARC
  5
37C
100
AcDbEntity
  8
0
370
        15
390
0
  6
Continuous
 62
         7
100
AcDbCircle
 10
15.6030272969
 20
48.2440235708
 30
0.0
 40
11.7511414083
100
AcDbArc
 50
47.6749951142
 51
75.8847584024
  0
LINE
  5
37D
100
AcDbEntity
  8
0
370
        15
390
0
  6
Continuous
 62
         7
100
AcDbLine
 10
23.515484887
 20
56.9320808497
 30
0.0
 11
22.7333991719
 21
56.5399636023
 31
0.0
  0
ARC
  5
37E
100
AcDbEntity
  8
0
370
        15
390
0
  6
Continuous
 62
         7
100
AcDbCircle
 10
22.7660272554
 20
56.4748862352
 30
0.0
 40
0.0727987331
100
AcDbArc
 50
116.6279846112
 51
296.6279846112
  0
LINE
  5
37F
100
AcDbEntity
  8
0
370
        15
390
0
  6
Continuous
 62
         7
100
AcDbLine
 10
22.798655339
 20
56.4098088681
 30
0.0
 11
23.6298384516
 21
56.8265422619
 31
0.0
  0
ARC
  5
380
100
AcDbEntity
  8
0
370
        15
390
0
  6
Continuous
 62
         7
100
AcDbCircle
 10
15.6030272969
 20
48.2440235708
 30
0.0
 40
11.7511414083
100
AcDbArc
 50
35.0501111125
 51
46.9162617761
  0
LINE
  5
381
100
AcDbEntity
  8
0
370
        15
390
0
  6
Continuous
 62
         7
100
AcDbLine
 10
25.2231001375
 20
54.9926177161
 30
0.0
 11
25.1778857184
 21
52.4022853828
 31
0.0
  0
LINE
  5
382
100
AcDbEntity
  8
0
370
        15
390
0
  6
Continuous
 62
         7
100
AcDbLine
 10
25.1778857184
 20
52.4022853828
 30
0.0
 11
24.8659996765
 21
52.3349993119
 31
0.0
  0
ARC
  5
383
100
AcDbEntity
  8
0
370
        15
390
0
  6
Continuous
 62
         7
100
AcDbCircle
 10
15.6030272969
 20
48.2440235708
 30
0.0
 40
10.1261414083
100
AcDbArc
 50
23.8285675471
 51
162.0268422122
  0
ARC
  5
384
100
AcDbEntity
  8
0
370
        15
390
0
  6
Continuous
 62
         7
100
AcDbCircle
 10
6.5621191288
 20
45.8332958293
 30
0.0
 40
5.5668354698
100
AcDbArc
 50
96.0951858407
 51
101.4391023429
  0
LINE
  5
385
100
AcDbEntity
  8
0
370
        15
390
0
  6
Continuous
 62
         7
100
AcDbLine
 10
5.4580692768
 20
51.2895519699
 30
0.0
 11
4.7895060954
 21
52.8437065623
 31
0.0
  0
ARC
  5
386
100
AcDbEntity
  8
0
370
        15
390
0
  6
Continuous
 62
         7
100
AcDbCircle
 10
15.6030272969
 20
48.2440235708
 30
0.0
 40
11.7511414083
100
AcDbArc
 50
138.8139865811
 51
156.9568437605
  0
LINE
  5
387
100
AcDbEntity
  8
0
370
        15
390
0
  6
Continuous
 62
         7
100
AcDbLine
 10
6.759404056
 20
55.9822179578
 30
0.0
 11
6.7327793681
 21
54.4568906087
 31
0.0
  0
ARC
  5
388
100
AcDbEntity
  8
0
370
        15
390
0
  6
Continuous
 62
         7
100
AcDbCircle
 10
6.7664392586
 20
54.4563030731
 30
0.0
 40
0.0336650179
100
AcDbArc
 50
179.0
 51
359.0
  0
LINE
  5
389
100
AcDbEntity
  8
0
370
        15
390
0
  6
Continuous
 62
         7
100
AcDbLine
 10
6.8000991492
 20
54.4557155375
 30
0.0
 11
6.8281026349
 21
56.0600341629
 31
0.0
  0
ARC
  5
38A
100
AcDbEntity
  8
0
370
        15
390
0
  6
Continuous
 62
         7
100
AcDbCircle
 10
15.6030272969
 20
48.2440235708
 30
0.0
 40
11.7511414083
100
AcDbArc
 50
108.9056736012
 51
138.3078709625
  0
CIRCLE
  5
38B
100
AcDbEntity
  8
0
370
        15
390
0
  6
Continuous
 62
         7
100
AcDbCircle
 10
16.7192283073
 20
15.8629825495
 30
0.0
 40
13.5
  0
CIRCLE
  5
38C
100
AcDbEntity
  8
0
370
        15
390
0
  6
Continuous
 62
         7
100
AcDbCircle
 10
16.7192283073
 20
15.8629825495
 30
0.0
 40
15.0
  0
CIRCLE
  5
38D
100
AcDbEntity
  8
0
370
        15
390
0
  6
Continuous
 62
         7
100
AcDbCircle
 10
15.8304353808
 20
47.1042158267
 30
0.0
 40
13.5
  0
CIRCLE
  5
38E
100
AcDbEntity
  8
0
370
        15
390
0
  6
Continuous
 62
         7
100
AcDbCircle
 10
15.8304353808
 20
47.1042158267
 30
0.0
 40
15.0
  0
LINE
  5
38F
100
AcDbEntity
  8
0
370
        15
390
0
  6
Continuous
 62
         7
100
AcDbLine
 10
31.6456992272
 20
50.4579793548
 30
0.0
 11
32.6545316714
 21
50.0029760297
 31
0.0
  0
ARC
  5
390
100
AcDbEntity
  8
0
370
        15
390
0
  6
Continuous
 62
         7
100
AcDbCircle
 10
32.6697575878
 20
50.0367349005
 30
0.0
 40
0.0370336318
100
AcDbArc
 50
245.7236864726
 51
65.7236864726
  0
LINE
  5
391
100
AcDbEntity
  8
0
370
        15
390
0
  6
Continuous
 62
         7
100
AcDbLine
 10
32.6849835042
 20
50.0704937712
 30
0.0
 11
31.6111063008
 21
50.5548335654
 31
0.0
  0
ARC
  5
392
100
AcDbEntity
  8
0
370
        15
390
0
  6
Continuous
 62
         7
100
AcDbCircle
 10
42.6947618409
 20
54.4589217131
 30
0.0
 40
11.7511414083
100
AcDbArc
 50
167.4385360035
 51
199.4042167057
  0
LINE
  5
393
100
AcDbEntity
  8
0
370
        15
390
0
  6
Continuous
 62
         7
100
AcDbLine
 10
31.9045927817
 20
56.3291669803
 30
0.0
 11
31.2249044492
 21
57.0146399703
 31
0.0
  0
ARC
  5
394
100
AcDbEntity
  8
0
370
        15
390
0
  6
Continuous
 62
         7
100
AcDbCircle
 10
31.9386389658
 20
56.3629258511
 30
0.0
 40
0.0479458445
100
AcDbArc
 50
224.7572195533
 51
44.7572195533
  0
LINE
  5
395
100
AcDbEntity
  8
0
370
        15
390
0
  6
Continuous
 62
         7
100
AcDbLine
 10
31.2501414364
 20
57.1253778243
 30
0.0
 11
31.9726851499
 21
56.3966847218
 31
0.0
  0
ARC
  5
396
100
AcDbEntity
  8
0
370
        15
390
0
  6
Continuous
 62
         7
100
AcDbCircle
 10
42.6947618409
 20
54.4589217131
 30
0.0
 40
11.7511414083
100
AcDbArc
 50
138.6749951142
 51
166.8847584024
  0
LINE
  5
397
100
AcDbEntity
  8
0
370
        15
390
0
  6
Continuous
 62
         7
100
AcDbLine
 10
33.8699363695
 20
62.2185466908
 30
0.0
 11
34.2756431734
 21
61.4434234807
 31
0.0
  0
ARC
  5
398
100
AcDbEntity
  8
0
370
        15
390
0
  6
Continuous
 62
         7
100
AcDbCircle
 10
34.3401411903
 20
61.4771823515
 30
0.0
 40
0.0727987331
100
AcDbArc
 50
207.6279846112
 51
27.6279846112
  0
LINE
  5
399
100
AcDbEntity
  8
0
370
        15
390
0
  6
Continuous
 62
         7
100
AcDbLine
 10
34.4046392071
 20
61.5109412223
 30
0.0
 11
33.9734631384
 21
62.3347247412
 31
0.0
  0
ARC
  5
39A
100
AcDbEntity
  8
0
370
        15
390
0
  6
Continuous
 62
         7
100
AcDbCircle
 10
42.6947618409
 20
54.4589217131
 30
0.0
 40
11.7511414083
100
AcDbArc
 50
126.0501111125
 51
137.9162617761
  0
LINE
  5
39B
100
AcDbEntity
  8
0
370
        15
390
0
  6
Continuous
 62
         7
100
AcDbLine
 10
35.779302118
 20
63.9597501621
 30
0.0
 11
38.3700290317
 21
63.9597501621
 31
0.0
  0
LINE
  5
39C
100
AcDbEntity
  8
0
370
        15
390
0
  6
Continuous
 62
         7
100
AcDbLine
 10
38.3700290317
 20
63.9597501621
 30
0.0
 11
38.4427480165
 21
63.6490859258
 31
0.0
  0
ARC
  5
39D
100
AcDbEntity
  8
0
370
        15
390
0
  6
Continuous
 62
         7
100
AcDbCircle
 10
42.6947618409
 20
54.4589217131
 30
0.0
 40
10.1261414083
100
AcDbArc
 50
114.8285675471
 51
253.0268422122
  0
ARC
  5
39E
100
AcDbEntity
  8
0
370
        15
390
0
  6
Continuous
 62
         7
100
AcDbCircle
 10
45.262908021
 20
45.4614635194
 30
0.0
 40
5.5668354699
100
AcDbArc
 50
187.0951858408
 51
192.4391023428
  0
LINE
  5
39F
100
AcDbEntity
  8
0
370
        15
390
0
  6
Continuous
 62
         7
100
AcDbLine
 10
39.8267512213
 20
44.2623570198
 30
0.0
 11
38.2845013705
 21
43.5667719262
 31
0.0
  0
ARC
  5
3A0
100
AcDbEntity
  8
0
370
        15
390
0
  6
Continuous
 62
         7
100
AcDbCircle
 10
42.6947618409
 20
54.4589217131
 30
0.0
 40
11.7511414083
100
AcDbArc
 50
229.8139865811
 51
247.9568437605
  0
LINE
  5
3A1
100
AcDbEntity
  8
0
370
        15
390
0
  6
Continuous
 62
         7
100
AcDbLine
 10
35.1120885256
 20
45.4815952853
 30
0.0
 11
36.6376482249
 21
45.4815952853
 31
0.0
  0
ARC
  5
3A2
100
AcDbEntity
  8
0
370
        15
390
0
  6
Continuous
 62
         7
100
AcDbCircle
 10
36.6376482249
 20
45.5152603032
 30
0.0
 40
0.0336650179
100
AcDbArc
 50
270.0
 51
90.0
  0
LINE
  5
3A3
100
AcDbEntity
  8
0
370
        15
390
0
  6
Continuous
 62
         7
100
AcDbLine
 10
36.6376482249
 20
45.5489253211
 30
0.0
 11
35.0330852169
 21
45.5489253211
 31
0.0
  0
ARC
  5
3A4
100
AcDbEntity
  8
0
370
        15
390
0
  6
Continuous
 62
         7
100
AcDbCircle
 10
42.6947618409
 20
54.4589217131
 30
0.0
 40
11.7511414083
100
AcDbArc
 50
199.9056736012
 51
229.3078709625
  0
LINE
  5
3A5
100
AcDbEntity
  8
0
370
        15
390
0
  6
Continuous
 62
         7
100
AcDbLine
 10
36.3207324419
 20
50.4579793548
 30
0.0
 11
37.3295648862
 21
50.0029760297
 31
0.0
  0
ARC
  5
3A6
100
AcDbEntity
  8
0
370
        15
390
0
  6
Continuous
 62
         7
100
AcDbCircle
 10
37.3447908026
 20
50.0367349005
 30
0.0
 40
0.0370336318
100
AcDbArc
 50
245.7236864726
 51
65.7236864726
  0
LINE
  5
3A7
100
AcDbEntity
  8
0
370
        15
390
0
  6
Continuous
 62
         7
100
AcDbLine
 10
37.360016719
 20
50.0704937712
 30
0.0
 11
36.2861395156
 21
50.5548335654
 31
0.0
  0
ARC
  5
3A8
100
AcDbEntity
  8
0
370
        15
390
0
  6
Continuous
 62
         7
100
AcDbCircle
 10
47.3697950557
 20
54.4589217131
 30
0.0
 40
11.7511414083
100
AcDbArc
 50
167.4385360035
 51
199.4042167057
  0
LINE
  5
3A9
100
AcDbEntity
  8
0
370
        15
390
0
  6
Continuous
 62
         7
100
AcDbLine
 10
36.5796259965
 20
56.3291669803
 30
0.0
 11
35.8999376639
 21
57.0146399703
 31
0.0
  0
ARC
  5
3AA
100
AcDbEntity
  8
0
370
        15
390
0
  6
Continuous
 62
         7
100
AcDbCircle
 10
36.6136721806
 20
56.3629258511
 30
0.0
 40
0.0479458445
100
AcDbArc
 50
224.7572195533
 51
44.7572195533
  0
LINE
  5
3AB
100
AcDbEntity
  8
0
370
        15
390
0
  6
Continuous
 62
         7
100
AcDbLine
 10
35.9251746511
 20
57.1253778243
 30
0.0
 11
36.6477183646
 21
56.3966847218
 31
0.0
  0
ARC
  5
3AC
100
AcDbEntity
  8
0
370
        15
390
0
  6
Continuous
 62
         7
100
AcDbCircle
 10
47.3697950557
 20
54.4589217131
 30
0.0
 40
11.7511414083
100
AcDbArc
 50
138.6749951142
 51
166.8847584024
  0
LINE
  5
3AD
100
AcDbEntity
  8
0
370
        15
390
0
  6
Continuous
 62
         7
100
AcDbLine
 10
38.5449695842
 20
62.2185466908
 30
0.0
 11
38.9506763881
 21
61.4434234807
 31
0.0
  0
ARC
  5
3AE
100
AcDbEntity
  8
0
370
        15
390
0
  6
Continuous
 62
         7
100
AcDbCircle
 10
39.015174405
 20
61.4771823515
 30
0.0
 40
0.0727987331
100
AcDbArc
 50
207.6279846112
 51
27.6279846112
  0
LINE
  5
3AF
100
AcDbEntity
  8
0
370
        15
390
0
  6
Continuous
 62
         7
100
AcDbLine
 10
39.0796724219
 20
61.5109412223
 30
0.0
 11
38.6484963531
 21
62.3347247412
 31
0.0
  0
ARC
  5
3B0
100
AcDbEntity
  8
0
370
        15
390
0
  6
Continuous
 62
         7
100
AcDbCircle
 10
47.3697950557
 20
54.4589217131
 30
0.0
 40
11.7511414083
100
AcDbArc
 50
126.0501111125
 51
137.9162617761
  0
LINE
  5
3B1
100
AcDbEntity
  8
0
370
        15
390
0
  6
Continuous
 62
         7
100
AcDbLine
 10
40.4543353328
 20
63.9597501621
 30
0.0
 11
43.0450622464
 21
63.9597501621
 31
0.0
  0
LINE
  5
3B2
100
AcDbEntity
  8
0
370
        15
390
0
  6
Continuous
 62
         7
100
AcDbLine
 10
43.0450622464
 20
63.9597501621
 30
0.0
 11
43.1177812312
 21
63.6490859258
 31
0.0
  0
ARC
  5
3B3
100
AcDbEntity
  8
0
370
        15
390
0
  6
Continuous
 62
         7
100
AcDbCircle
 10
47.3697950557
 20
54.4589217131
 30
0.0
 40
10.1261414083
100
AcDbArc
 50
114.8285675471
 51
253.0268422122
  0
ARC
  5
3B4
100
AcDbEntity
  8
0
370
        15
390
0
  6
Continuous
 62
         7
100
AcDbCircle
 10
49.9379412356
 20
45.4614635194
 30
0.0
 40
5.5668354698
100
AcDbArc
 50
187.0951858407
 51
192.4391023429
  0
LINE
  5
3B5
100
AcDbEntity
  8
0
370
        15
390
0
  6
Continuous
 62
         7
100
AcDbLine
 10
44.501784436
 20
44.2623570198
 30
0.0
 11
42.9595345853
 21
43.5667719262
 31
0.0
  0
ARC
  5
3B6
100
AcDbEntity
  8
0
370
        15
390
0
  6
Continuous
 62
         7
100
AcDbCircle
 10
47.3697950557
 20
54.4589217131
 30
0.0
 40
11.7511414083
100
AcDbArc
 50
229.8139865811
 51
247.9568437605
  0
LINE
  5
3B7
100
AcDbEntity
  8
0
370
        15
390
0
  6
Continuous
 62
         7
100
AcDbLine
 10
39.7871217404
 20
45.4815952853
 30
0.0
 11
41.3126814396
 21
45.4815952853
 31
0.0
  0
ARC
  5
3B8
100
AcDbEntity
  8
0
370
        15
390
0
  6
Continuous
 62
         7
100
AcDbCircle
 10
41.3126814396
 20
45.5152603032
 30
0.0
 40
0.0336650179
100
AcDbArc
 50
270.0
 51
90.0
  0
LINE
  5
3B9
100
AcDbEntity
  8
0
370
        15
390
0
  6
Continuous
 62
         7
100
AcDbLine
 10
41.3126814396
 20
45.5489253211
 30
0.0
 11
39.7081184316
 21
45.5489253211
 31
0.0
  0
ARC
  5
3BA
100
AcDbEntity
  8
0
370
        15
390
0
  6
Continuous
 62
         7
100
AcDbCircle
 10
47.3697950557
 20
54.4589217131
 30
0.0
 40
11.7511414083
100
AcDbArc
 50
199.9056736012
 51
229.3078709625
  0
LINE
  5
3BB
100
AcDbEntity
  8
0
370
        15
390
0
  6
Continuous
 62
         7
100
AcDbLine
 10
35.7183218169
 20
22.0735435285
 30
0.0
 11
35.7009251793
 21
22.1973270371
 31
0.0
  0
LINE
  5
3BC
100
AcDbEntity
  8
0
370
        15
390
0
  6
Continuous
 62
         7
100
AcDbLine
 10
33.4902186622
 20
21.7604040513
 30
0.0
 11
35.7183218169
 21
22.0735435285
 31
0.0
  0
ARC
  5
3BD
100
AcDbEntity
  8
0
370
        15
390
0
  6
Continuous
 62
         7
100
AcDbCircle
 10
39.8311704176
 20
41.4275308644
 30
0.0
 40
5.0915872699
100
AcDbArc
 50
159.6871180825
 51
181.3156973246
  0
ARC
  5
3BE
100
AcDbEntity
  8
0
370
        15
390
0
  6
Continuous
 62
         7
100
AcDbCircle
 10
39.0161178496
 20
32.1312170652
 30
0.0
 40
10.1261414083
100
AcDbArc
 50
114.9731577878
 51
125.5862362465
  0
LINE
  5
3BF
100
AcDbEntity
  8
0
370
        15
390
0
  6
Continuous
 62
         7
100
AcDbLine
 10
31.7688800964
 20
40.1758356714
 30
0.0
 11
33.123436399
 21
40.3662061448
 31
0.0
  0
ARC
  5
3C0
100
AcDbEntity
  8
0
370
        15
390
0
  6
Continuous
 62
         7
100
AcDbCircle
 10
31.7732345545
 20
40.1448520922
 30
0.0
 40
0.0312880726
100
AcDbArc
 50
98.0
 51
278.0
  0
LINE
  5
3C1
100
AcDbEntity
  8
0
370
        15
390
0
  6
Continuous
 62
         7
100
AcDbLine
 10
33.0154240985
 20
40.2878348892
 30
0.0
 11
31.7775890126
 21
40.113868513
 31
0.0
  0
ARC
  5
3C2
100
AcDbEntity
  8
0
370
        15
390
0
  6
Continuous
 62
         7
100
AcDbCircle
 10
39.0161178496
 20
32.1312170652
 30
0.0
 40
10.1261414083
100
AcDbArc
 50
126.3413250449
 51
158.2992536016
  0
LINE
  5
3C3
100
AcDbEntity
  8
0
370
        15
390
0
  6
Continuous
 62
         7
100
AcDbLine
 10
28.4534507314
 20
35.1464678244
 30
0.0
 11
29.6076388189
 21
35.8754475802
 31
0.0
  0
ARC
  5
3C4
100
AcDbEntity
  8
0
370
        15
390
0
  6
Continuous
 62
         7
100
AcDbCircle
 10
28.473226797
 20
35.1151565307
 30
0.0
 40
0.0370336318
100
AcDbArc
 50
122.2763135274
 51
302.2763135274
  0
LINE
  5
3C5
100
AcDbEntity
  8
0
370
        15
390
0
  6
Continuous
 62
         7
100
AcDbLine
 10
29.5621779952
 20
35.7591312111
 30
0.0
 11
28.4930028625
 21
35.0838452369
 31
0.0
  0
ARC
  5
3C6
100
AcDbEntity
  8
0
370
        15
390
0
  6
Continuous
 62
         7
100
AcDbCircle
 10
39.0161178496
 20
32.1312170652
 30
0.0
 40
10.1261414083
100
AcDbArc
 50
159.0058811666
 51
194.4417882712
  0
LINE
  5
3C7
100
AcDbEntity
  8
0
370
        15
390
0
  6
Continuous
 62
         7
100
AcDbLine
 10
29.2099470844
 20
29.6057953687
 30
0.0
 11
28.5912458073
 21
28.7774716085
 31
0.0
  0
ARC
  5
3C8
100
AcDbEntity
  8
0
370
        15
390
0
  6
Continuous
 62
         7
100
AcDbCircle
 10
28.629658983
 20
28.7487795897
 30
0.0
 40
0.0479458445
100
AcDbArc
 50
143.2427804467
 51
323.2427804467
  0
LINE
  5
3C9
100
AcDbEntity
  8
0
370
        15
390
0
  6
Continuous
 62
         7
100
AcDbLine
 10
28.6680721587
 20
28.720087571
 30
0.0
 11
29.2412023642
 21
29.4874003025
 31
0.0
  0
ARC
  5
3CA
100
AcDbEntity
  8
0
370
        15
390
0
  6
Continuous
 62
         7
100
AcDbCircle
 10
39.0161178496
 20
32.1312170652
 30
0.0
 40
10.1261414083
100
AcDbArc
 50
195.1346461502
 51
225.7414308019
  0
LINE
  5
3CB
100
AcDbEntity
  8
0
370
        15
390
0
  6
Continuous
 62
         7
100
AcDbLine
 10
31.6509882358
 20
24.0429731363
 30
0.0
 11
31.9491082389
 21
24.878899161
 31
0.0
  0
ARC
  5
3CC
100
AcDbEntity
  8
0
370
        15
390
0
  6
Continuous
 62
         7
100
AcDbCircle
 10
31.7195568891
 20
24.0185191935
 30
0.0
 40
0.0727987331
100
AcDbArc
 50
160.3720153887
 51
340.3720153888
  0
LINE
  5
3CD
100
AcDbEntity
  8
0
370
        15
390
0
  6
Continuous
 62
         7
100
AcDbLine
 10
32.0642869539
 20
24.7684195657
 30
0.0
 11
31.7881255425
 21
23.9940652508
 31
0.0
  0
ARC
  5
3CE
100
AcDbEntity
  8
0
370
        15
390
0
  6
Continuous
 62
         7
100
AcDbCircle
 10
39.0161178496
 20
32.1312170652
 30
0.0
 40
10.1261414083
100
AcDbArc
 50
226.6444845869
 51
241.69003902
  0
LINE
  5
3CF
100
AcDbEntity
  8
0
370
        15
390
0
  6
Continuous
 62
         7
100
AcDbLine
 10
35.7009251793
 20
22.1973270371
 30
0.0
 11
34.2138836419
 21
23.2162136196
 31
0.0
  0
ARC
  5
3D0
100
AcDbEntity
  8
0
370
        15
390
0
  6
Continuous
 62
         7
100
AcDbCircle
 10
39.0161178496
 20
32.1312170652
 30
0.0
 40
11.7511414083
100
AcDbArc
 50
109.6929541157
 51
241.9498888875
  0
ENDSEC
  0
SECTION
  2
OBJECTS
  0
DICTIONARY
  5
19
100
AcDbDictionary
280
         0
281
         1
  3
ACAD_GROUP
350
1A
  3
ACAD_MLINESTYLE
350
1B
  3
ACAD_LAYOUT
350
1E
  3
ACAD_PLOTSETTINGS
350
22
  3
ACAD_PLOTSTYLENAME
350
1F
  3
ACAD_WIPEOUT_VARS
350
23
  0
DICTIONARY
  5
1A
102
{ACAD_REACTORS
330
19
102
}
100
AcDbDictionary
280
         0
281
         1
  0
DICTIONARY
  5
1B
102
{ACAD_REACTORS
330
19
102
}
100
AcDbDictionary
280
         0
281
         1
  3
Standard
350
1C
  0
MLINESTYLE
  5
1C
102
{ACAD_REACTORS
330
1B
102
}
100
AcDbMlineStyle
  2
Standard
 70
         0
  3

 62
         0
 51
90.0
 52
90.0
 71
         2
 49
0.5
 62
       256
  6
ByLayer
 49
-0.5
 62
       256
  6
ByLayer
  0
ACDBDICTIONARYWDFLT
  5
1F
102
{ACAD_REACTORS
330
19
102
}
100
AcDbDictionary
281
         1
  3
Normal
350
1D
100
AcDbDictionaryWithDefault
340
1D
  0
ACDBPLACEHOLDER
  5
1D
102
{ACAD_REACTORS
330
1F
102
}
  0
LAYOUT
  5
20
102
{ACAD_REACTORS
330
1E
102
}
100
AcDbPlotSettings
  1

  2

  4

  6

 40
0.0
 41
0.0
 42
0.0
 43
0.0
 44
0.0
 45
0.0
 46
0.0
 47
0.0
 48
0.0
 49
0.0
140
0.0
141
0.0
142
1.0
143
1.0
 70
      1024
 72
         0
 73
         0
 74
         0
  7

 75
         0
147
1.0
148
0.0
149
0.0
100
AcDbLayout
  1
Model
 70
         0
 71
         0
 10
0.0
 20
0.0
 11
0.0
 21
0.0
 12
0.0
 22
0.0
 32
0.0
 14
0.0
 24
0.0
 34
0.0
 15
0.0
 25
0.0
 35
0.0
146
0.0
 13
0.0
 23
0.0
 33
0.0
 16
0.0
 26
0.0
 36
0.0
 17
0.0
 27
0.0
 37
0.0
 76
         0
330
A
331
0
345
0
346
0
  0
LAYOUT
  5
21
102
{ACAD_REACTORS
330
1E
102
}
100
AcDbPlotSettings
  1

  2

  4

  6

 40
0.0
 41
0.0
 42
0.0
 43
0.0
 44
0.0
 45
0.0
 46
0.0
 47
0.0
 48
0.0
 49
0.0
140
0.0
141
0.0
142
1.0
143
1.0
 70
         0
 72
         0
 73
         0
 74
         0
  7

 75
         0
147
1.0
148
0.0
149
0.0
100
AcDbLayout
  1
Layout1
 70
         0
 71
         0
 10
0.0
 20
0.0
 11
0.0
 21
0.0
 12
0.0
 22
0.0
 32
0.0
 14
0.0
 24
0.0
 34
0.0
 15
0.0
 25
0.0
 35
0.0
146
0.0
 13
0.0
 23
0.0
 33
0.0
 16
0.0
 26
0.0
 36
0.0
 17
0.0
 27
0.0
 37
0.0
 76
         0
330
B
331
0
345
0
346
0
  0
DICTIONARY
  5
1E
102
{ACAD_REACTORS
330
19
102
}
100
AcDbDictionary
280
         0
281
         1
  3
Layout1
350
21
  3
Model
350
20
  0
DICTIONARY
  5
22
102
{ACAD_REACTORS
330
19
102
}
100
AcDbDictionary
280
         0
281
         1
  0
WIPEOUTVARIABLES
  5
23
100
AcDbWipeoutVariables
 70
         1
  0
ENDSEC
  0
EOF
