  0
SECTION
  2
HEADER
  9
$ACADVER
  1
AC1009
  9
$DWGCODEPAGE
  3
ansi_1252
  9
$INSBASE
 10
0.0
 20
0.0
 30
0.0
  9
$EXTMIN
 10
0.0
 20
0.0
 30
0.0
  9
$EXTMAX
 10
48.0
 20
48.0
 30
0.0
  9
$LIMMIN
 10
0.0
 20
0.0
  9
$LIMMAX
 10
0.0
 20
0.0
  9
$ORTHOMODE
 70
         0
  9
$REGENMODE
 70
         1
  9
$FILLMODE
 70
         1
  9
$QTEXTMODE
 70
         0
  9
$MIRRTEXT
 70
         1
  9
$DRAGMODE
 70
         2
  9
$LTSCALE
 40
1.0
  9
$OSMODE
 70
         0
  9
$ATTMODE
 70
         1
  9
$TEXTSIZE
 40
0.1377952756
  9
$TRACEWID
 40
0.05
  9
$TEXTSTYLE
  7
STANDARD
  9
$CLAYER
  8
0
  9
$CELTYPE
  6
CONTINUOUS
  9
$CECOLOR
 62
       256
  9
$DIMSCALE
 40
1.0
  9
$DIMASZ
 40
0.0
  9
$DIMEXO
 40
0.0
  9
$DIMDLI
 40
0.38
  9
$DIMRND
 40
0.0
  9
$DIMDLE
 40
0.0
  9
$DIMEXE
 40
0.18
  9
$DIMTP
 40
0.0
  9
$DIMTM
 40
0.0
  9
$DIMTXT
 40
0.1377952756
  9
$DIMCEN
 40
0.09
  9
$DIMTSZ
 40
0.0
  9
$DIMTOL
 70
         0
  9
$DIMLIM
 70
         0
  9
$DIMTIH
 70
         1
  9
$DIMTOH
 70
         1
  9
$DIMSE1
 70
         0
  9
$DIMSE2
 70
         0
  9
$DIMTAD
 70
         1
  9
$DIMZIN
 70
         0
  9
$DIMBLK
  1

  9
$DIMASO
 70
         1
  9
$DIMSHO
 70
         1
  9
$DIMPOST
  1

  9
$DIMAPOST
  1

  9
$DIMALT
 70
         0
  9
$DIMALTD
 70
         2
  9
$DIMALTF
 40
25.4
  9
$DIMLFAC
 40
1.0
  9
$DIMTOFL
 70
         0
  9
$DIMTVP
 40
0.0
  9
$DIMTIX
 70
         0
  9
$DIMSOXD
 70
         0
  9
$DIMSAH
 70
         0
  9
$DIMBLK1
  1

  9
$DIMBLK2
  1

  9
$DIMSTYLE
  2
STANDARD
  9
$DIMCLRD
 70
         0
  9
$DIMCLRE
 70
         0
  9
$DIMCLRT
 70
         0
  9
$DIMTFAC
 40
1.0
  9
$DIMGAP
 40
0.0
  9
$LUNITS
 70
         2
  9
$LUPREC
 70
         2
  9
$AXISMODE
 70
         0
  9
$AXISUNIT
 10
0.0
 20
0.0
  9
$SKETCHINC
 40
0.1
  9
$FILLETRAD
 40
0.0
  9
$AUNITS
 70
         0
  9
$AUPREC
 70
         2
  9
$MENU
  1
acad
  9
$ELEVATION
 40
0.0
  9
$PELEVATION
 40
0.0
  9
$THICKNESS
 40
0.0
  9
$LIMCHECK
 70
         0
  9
$BLIPMODE
 70
         1
  9
$CHAMFERA
 40
0.0
  9
$CHAMFERB
 40
0.0
  9
$SKPOLY
 70
         0
  9
$TDCREATE
 40
0.000000000
  9
$TDUPDATE
 40
0.000000000
  9
$TDINDWG
 40
0.0000000000
  9
$TDUSRTIMER
 40
0.0000000000
  9
$USRTIMER
 70
         1
  9
$ANGBASE
 50
0.0
  9
$ANGDIR
 70
         0
  9
$PDMODE
 70
         0
  9
$PDSIZE
 40
-1.0
  9
$PLINEWID
 40
0.0
  9
$COORDS
 70
         0
  9
$SPLFRAME
 70
         0
  9
$SPLINETYPE
 70
         6
  9
$SPLINESEGS
 70
         8
  9
$ATTDIA
 70
         0
  9
$ATTREQ
 70
         1
  9
$HANDLING
 70
         1
  9
$HANDSEED
  5
11A
  9
$SURFTAB1
 70
         6
  9
$SURFTAB2
 70
         6
  9
$SURFTYPE
 70
         6
  9
$SURFU
 70
         6
  9
$SURFV
 70
         6
  9
$UCSNAME
  2

  9
$UCSORG
 10
0.0
 20
0.0
 30
0.0
  9
$UCSXDIR
 10
1.0
 20
0.0
 30
0.0
  9
$UCSYDIR
 10
0.0
 20
1.0
 30
0.0
  9
$PUCSNAME
  2

  9
$PUCSORG
 10
0.0
 20
0.0
 30
0.0
  9
$PUCSXDIR
 10
1.0
 20
0.0
 30
0.0
  9
$PUCSYDIR
 10
0.0
 20
1.0
 30
0.0
  9
$USERI1
 70
         0
  9
$USERI2
 70
         0
  9
$USERI3
 70
         0
  9
$USERI4
 70
         0
  9
$USERI5
 70
         0
  9
$USERR1
 40
0.0
  9
$USERR2
 40
0.0
  9
$USERR3
 40
0.0
  9
$USERR4
 40
0.0
  9
$USERR5
 40
0.0
  9
$WORLDVIEW
 70
         1
  9
$SHADEDGE
 70
         3
  9
$SHADEDIF
 70
        70
  9
$TILEMODE
 70
         1
  9
$MAXACTVP
 70
        16
  9
$PINSBASE
 10
0.0
 20
0.0
 30
0.0
  9
$PLIMCHECK
 70
         0
  9
$PEXTMIN
 10
1.0000000000E+20
 20
1.0000000000E+20
 30
1.0000000000E+20
  9
$PEXTMAX
 10
-1.0000000000E+20
 20
-1.0000000000E+20
 30
-1.0000000000E+20
  9
$PLIMMIN
 10
0.0
 20
0.0
  9
$PLIMMAX
 10
12.0
 20
9.0
  9
$UNITMODE
 70
         0
  9
$VISRETAIN
 70
         0
  9
$PLINEGEN
 70
         1
  9
$PSLTSCALE
 70
         1
  9
$TREEDEPTH
 70
      3020
  0
ENDSEC
  0
SECTION
  2
TABLES
  0
TABLE
  2
VPORT
 70
         1
  0
VPORT
  2
*ACTIVE
 70
         0
 10
0.0
 20
0.0
 11
1.0
 21
1.0
 12
24.0
 22
24.0
 13
0.0
 23
0.0
 14
1.0
 24
1.0
 15
0.0
 25
0.0
 16
0.0
 26
0.0
 36
1.0
 17
0.0
 27
0.0
 37
0.0
 40
48.0
 41
1.0
 42
50.0
 43
0.0
 44
0.0
 50
0.0
 51
0.0
 71
         0
 72
      2000
 73
         1
 74
         1
 75
         0
 76
         0
 77
         0
 78
         0
  0
ENDTAB
  0
TABLE
  2
LTYPE
 70
         6
  0
LTYPE
  2
CONTINUOUS
 70
        64
  3
Solid line
 72
        65
 73
         0
 40
0.0
  0
LTYPE
  2
HIDDEN
 70
        64
  3
Hidden __ __ __ __ __ __ __ __ __ __ __ __ __ __
 72
        65
 73
         2
 40
0.075
 49
0.05
 49
-0.025
  0
LTYPE
  2
PHANTOM
 70
        64
  3
Phantom ______  __  __  ______  __  __  ______
 72
        65
 73
         6
 40
0.5
 49
0.25
 49
-0.05
 49
0.05
 49
-0.05
 49
0.05
 49
-0.05
  0
LTYPE
  2
CENTER
 70
        64
  3
Center ____ _ ____ _ ____ _ ____ _ ____ _ ____
 72
        65
 73
         4
 40
0.4
 49
0.25
 49
-0.05
 49
0.05
 49
-0.05
  0
LTYPE
  2
CENTERX2
 70
        64
  3
Center (2x) ________  __  ________  __  _____
 72
        65
 73
         4
 40
0.8
 49
0.5
 49
-0.1
 49
0.1
 49
-0.1
  0
LTYPE
  2
DOT2
 70
        64
  3
Dot (.5x) ........................................
 72
        65
 73
         2
 40
0.025
 49
0.0
 49
-0.025
  0
ENDTAB
  0
TABLE
  2
LAYER
 70
         2
  0
LAYER
  2
0
 70
         0
 62
         7
  6
CONTINUOUS
  0
LAYER
  2
DEFPOINTS
 70
         0
 62
         7
  6
CONTINUOUS
  0
ENDTAB
  0
TABLE
  2
STYLE
 70
         1
  0
STYLE
  2
STANDARD
 70
         0
 40
0.0
 41
1.0
 50
0.0
 71
         0
 42
0.0
  3
txt
  4

  0
ENDTAB
  0
TABLE
  2
VIEW
 70
         0
  0
ENDTAB
  0
TABLE
  2
UCS
 70
         0
  0
ENDTAB
  0
TABLE
  2
APPID
 70
         1
  0
APPID
  2
ACAD
 70
         0
  0
ENDTAB
  0
TABLE
  2
DIMSTYLE
 70
         1
  0
DIMSTYLE
  2
STANDARD
 70
         0
  3

  4

  5

  6

  7

 40
1.0
 41
0.18
 42
0.0625
 43
0.38
 44
0.18
 45
0.0
 46
0.0
 47
0.0
 48
0.0
 71
         0
 72
         0
 73
         1
 74
         1
 75
         0
 76
         0
 77
         0
 78
         0
140
0.18
141
0.09
142
0.0
143
25.4
144
1.0
145
0.0
146
1.0
147
0.09
170
         0
171
         2
172
         0
173
         0
174
         0
175
         0
176
         0
177
         0
178
         0
  0
ENDTAB
  0
ENDSEC
  0
SECTION
  2
BLOCKS
  0
ENDSEC
  0
SECTION
  2
ENTITIES
  0
LINE
  8
0
  6
CONTINUOUS
 62
       179
  5
26
 10
24.911339937
 20
31.9396406899
 30
0.0
 11
25.9120778283
 21
31.4671001101
 31
0.0
  0
LINE
  8
0
  6
CONTINUOUS
 62
       179
  5
27
 10
25.9437033701
 20
31.5340761106
 30
0.0
 11
24.8784426184
 21
32.0370838788
 31
0.0
  0
LINE
  8
0
  6
CONTINUOUS
 62
       179
  5
28
 10
25.2726604135
 20
37.8054157895
 30
0.0
 11
24.605038754
 21
38.5026465756
 31
0.0
  0
LINE
  8
0
  6
CONTINUOUS
 62
       179
  5
29
 10
24.6322045396
 20
38.6129271176
 30
0.0
 11
25.341920758
 21
37.8717348721
 31
0.0
  0
LINE
  8
0
  6
CONTINUOUS
 62
       179
  5
2A
 10
27.3404885183
 20
43.6595985438
 30
0.0
 11
27.7326057658
 21
42.8775128288
 31
0.0
  0
LINE
  8
0
  6
CONTINUOUS
 62
       179
  5
2B
 10
27.8627604999
 20
42.9427689958
 30
0.0
 11
27.4460271061
 21
43.7739521085
 31
0.0
  0
LINE
  8
0
  6
CONTINUOUS
 62
       179
  5
2C
 10
29.2799516519
 20
45.3672137943
 30
0.0
 11
31.8702838811
 21
45.3219997703
 31
0.0
  0
LINE
  8
0
  6
CONTINUOUS
 62
       179
  5
2D
 10
31.8702838811
 20
45.3219997703
 30
0.0
 11
31.9375700561
 21
45.0101133334
 31
0.0
  0
LINE
  8
0
  6
CONTINUOUS
 62
       179
  5
2E
 10
32.9830173624
 20
25.6021829239
 30
0.0
 11
31.4288628058
 21
24.933619752
 31
0.0
  0
LINE
  8
0
  6
CONTINUOUS
 62
       179
  5
2F
 10
28.2903514102
 20
26.9035177127
 30
0.0
 11
29.8156787594
 21
26.8768930248
 31
0.0
  0
LINE
  8
0
  6
CONTINUOUS
 62
       179
  5
30
 10
29.8168538304
 20
26.944212806
 30
0.0
 11
28.2125352052
 21
26.9722162917
 31
0.0
  0
LINE
  8
0
  6
CONTINUOUS
 62
       179
  5
31
 10
28.474644881
 20
32.1239989331
 30
0.0
 11
29.4753827723
 21
31.6514583533
 31
0.0
  0
LINE
  8
0
  6
CONTINUOUS
 62
       179
  5
32
 10
29.5070083141
 20
31.7184343538
 30
0.0
 11
28.4417475624
 21
32.221442122
 31
0.0
  0
LINE
  8
0
  6
CONTINUOUS
 62
       179
  5
33
 10
28.8359653576
 20
37.9897740328
 30
0.0
 11
28.1683436981
 21
38.6870048189
 31
0.0
  0
LINE
  8
0
  6
CONTINUOUS
 62
       179
  5
34
 10
28.1955094836
 20
38.7972853609
 30
0.0
 11
28.905225702
 21
38.0560931154
 31
0.0
  0
LINE
  8
0
  6
CONTINUOUS
 62
       179
  5
35
 10
30.9037934624
 20
43.8439567872
 30
0.0
 11
31.2959107099
 21
43.0618710721
 31
0.0
  0
LINE
  8
0
  6
CONTINUOUS
 62
       179
  5
36
 10
31.4260654441
 20
43.1271272392
 30
0.0
 11
31.0093320503
 21
43.9583103518
 31
0.0
  0
LINE
  8
0
  6
CONTINUOUS
 62
       179
  5
37
 10
32.843256596
 20
45.5515720376
 30
0.0
 11
35.4335888252
 21
45.5063580136
 31
0.0
  0
LINE
  8
0
  6
CONTINUOUS
 62
       179
  5
38
 10
35.4335888252
 20
45.5063580136
 30
0.0
 11
35.5008750003
 21
45.1944715767
 31
0.0
  0
LINE
  8
0
  6
CONTINUOUS
 62
       179
  5
39
 10
36.5463223065
 20
25.7865411671
 30
0.0
 11
34.9921677498
 21
25.1179779952
 31
0.0
  0
LINE
  8
0
  6
CONTINUOUS
 62
       179
  5
3A
 10
31.8536563542
 20
27.0878759559
 30
0.0
 11
33.3789837034
 21
27.061251268
 31
0.0
  0
LINE
  8
0
  6
CONTINUOUS
 62
       179
  5
3B
 10
33.3801587746
 20
27.1285710492
 30
0.0
 11
31.7758401492
 21
27.1565745349
 31
0.0
  0
LINE
  8
0
  6
CONTINUOUS
 62
       179
  5
3C
 10
31.9106262587
 20
32.329970317
 30
0.0
 11
32.91136415
 21
31.8574297373
 31
0.0
  0
LINE
  8
0
  6
CONTINUOUS
 62
       179
  5
3D
 10
32.9429896919
 20
31.9244057378
 30
0.0
 11
31.8777289401
 21
32.427413506
 31
0.0
  0
LINE
  8
0
  6
CONTINUOUS
 62
       179
  5
3E
 10
32.2719467354
 20
38.1957454168
 30
0.0
 11
31.6043250758
 21
38.892976203
 31
0.0
  0
LINE
  8
0
  6
CONTINUOUS
 62
       179
  5
3F
 10
31.6314908614
 20
39.0032567449
 30
0.0
 11
32.3412070798
 21
38.2620644993
 31
0.0
  0
LINE
  8
0
  6
CONTINUOUS
 62
       179
  5
40
 10
34.3397748402
 20
44.0499281713
 30
0.0
 11
34.7318920877
 21
43.2678424561
 31
0.0
  0
LINE
  8
0
  6
CONTINUOUS
 62
       179
  5
41
 10
34.8620468218
 20
43.3330986232
 30
0.0
 11
34.4453134281
 21
44.1642817359
 31
0.0
  0
LINE
  8
0
  6
CONTINUOUS
 62
       179
  5
42
 10
36.2792379738
 20
45.7575434217
 30
0.0
 11
38.869570203
 21
45.7123293977
 31
0.0
  0
LINE
  8
0
  6
CONTINUOUS
 62
       179
  5
43
 10
38.869570203
 20
45.7123293977
 30
0.0
 11
38.9368563781
 21
45.4004429607
 31
0.0
  0
LINE
  8
0
  6
CONTINUOUS
 62
       179
  5
44
 10
39.9823036843
 20
25.992512551
 30
0.0
 11
38.4281491276
 21
25.3239493793
 31
0.0
  0
LINE
  8
0
  6
CONTINUOUS
 62
       179
  5
45
 10
35.289637732
 20
27.29384734
 30
0.0
 11
36.8149650812
 21
27.2672226521
 31
0.0
  0
LINE
  8
0
  6
CONTINUOUS
 62
       179
  5
46
 10
36.8161401524
 20
27.3345424331
 30
0.0
 11
35.211821527
 21
27.3625459189
 31
0.0
  0
LINE
  8
0
  6
CONTINUOUS
 62
       179
  5
47
 10
36.0740546043
 20
32.1278267998
 30
0.0
 11
37.0747924955
 21
31.6552862201
 31
0.0
  0
LINE
  8
0
  6
CONTINUOUS
 62
       179
  5
48
 10
37.1064180375
 20
31.7222622205
 30
0.0
 11
36.0411572857
 21
32.2252699888
 31
0.0
  0
LINE
  8
0
  6
CONTINUOUS
 62
       179
  5
49
 10
36.4353750808
 20
37.9936018995
 30
0.0
 11
35.7677534214
 21
38.6908326857
 31
0.0
  0
LINE
  8
0
  6
CONTINUOUS
 62
       179
  5
4A
 10
35.7949192069
 20
38.8011132276
 30
0.0
 11
36.5046354253
 21
38.059920982
 31
0.0
  0
LINE
  8
0
  6
CONTINUOUS
 62
       179
  5
4B
 10
38.5032031857
 20
43.8477846539
 30
0.0
 11
38.8953204332
 21
43.0656989388
 31
0.0
  0
LINE
  8
0
  6
CONTINUOUS
 62
       179
  5
4C
 10
39.0254751673
 20
43.1309551059
 30
0.0
 11
38.6087417735
 21
43.9621382186
 31
0.0
  0
LINE
  8
0
  6
CONTINUOUS
 62
       179
  5
4D
 10
40.4426663193
 20
45.5553999044
 30
0.0
 11
43.0329985485
 21
45.5101858804
 31
0.0
  0
LINE
  8
0
  6
CONTINUOUS
 62
       179
  5
4E
 10
43.0329985485
 20
45.5101858804
 30
0.0
 11
43.1002847235
 21
45.1982994434
 31
0.0
  0
LINE
  8
0
  6
CONTINUOUS
 62
       179
  5
4F
 10
44.1457320299
 20
25.7903690339
 30
0.0
 11
42.5915774731
 21
25.1218058621
 31
0.0
  0
LINE
  8
0
  6
CONTINUOUS
 62
       179
  5
50
 10
39.4530660776
 20
27.0917038227
 30
0.0
 11
40.9783934267
 21
27.0650791348
 31
0.0
  0
LINE
  8
0
  6
CONTINUOUS
 62
       179
  5
51
 10
40.9795684978
 20
27.1323989159
 30
0.0
 11
39.3752498726
 21
27.1604024016
 31
0.0
  0
LINE
  8
0
  6
CONTINUOUS
 62
       179
  5
52
 10
39.6094194841
 20
32.333798184
 30
0.0
 11
40.6101573753
 21
31.8612576042
 31
0.0
  0
LINE
  8
0
  6
CONTINUOUS
 62
       179
  5
53
 10
40.6417829173
 20
31.9282336047
 30
0.0
 11
39.5765221655
 21
32.431241373
 31
0.0
  0
LINE
  8
0
  6
CONTINUOUS
 62
       179
  5
54
 10
39.9707399607
 20
38.1995732836
 30
0.0
 11
39.3031183012
 21
38.8968040697
 31
0.0
  0
LINE
  8
0
  6
CONTINUOUS
 62
       179
  5
55
 10
39.3302840867
 20
39.0070846117
 30
0.0
 11
40.0400003051
 21
38.2658923661
 31
0.0
  0
LINE
  8
0
  6
CONTINUOUS
 62
       179
  5
56
 10
42.0385680654
 20
44.0537560379
 30
0.0
 11
42.4306853128
 21
43.2716703229
 31
0.0
  0
LINE
  8
0
  6
CONTINUOUS
 62
       179
  5
57
 10
42.560840047
 20
43.3369264899
 30
0.0
 11
42.1441066532
 21
44.1681096026
 31
0.0
  0
LINE
  8
0
  6
CONTINUOUS
 62
       179
  5
58
 10
43.978031199
 20
45.7613712884
 30
0.0
 11
46.5683634282
 21
45.7161572645
 31
0.0
  0
LINE
  8
0
  6
CONTINUOUS
 62
       179
  5
59
 10
46.5683634282
 20
45.7161572645
 30
0.0
 11
46.6356496032
 21
45.4042708275
 31
0.0
  0
LINE
  8
0
  6
CONTINUOUS
 62
       179
  5
5A
 10
47.6810969096
 20
25.9963404181
 30
0.0
 11
46.1269423528
 21
25.3277772462
 31
0.0
  0
LINE
  8
0
  6
CONTINUOUS
 62
       179
  5
5B
 10
42.9884309573
 20
27.2976752069
 30
0.0
 11
44.5137583064
 21
27.271050519
 31
0.0
  0
LINE
  8
0
  6
CONTINUOUS
 62
       179
  5
5C
 10
44.5149333776
 20
27.3383703001
 30
0.0
 11
42.9106147523
 21
27.3663737859
 31
0.0
  0
LINE
  8
0
  6
CONTINUOUS
 62
       179
  5
5D
 10
10.0633088421
 20
31.6251231847
 30
0.0
 11
11.0640467334
 21
31.1525826049
 31
0.0
  0
LINE
  8
0
  6
CONTINUOUS
 62
       179
  5
5E
 10
11.0956722752
 20
31.2195586054
 30
0.0
 11
10.0304115235
 21
31.7225663737
 31
0.0
  0
LINE
  8
0
  6
CONTINUOUS
 62
       179
  5
5F
 10
10.4246293187
 20
37.4908982844
 30
0.0
 11
9.7570076592
 21
38.1881290705
 31
0.0
  0
LINE
  8
0
  6
CONTINUOUS
 62
       179
  5
60
 10
9.7841734447
 20
38.2984096125
 30
0.0
 11
10.4938896631
 21
37.557217367
 31
0.0
  0
LINE
  8
0
  6
CONTINUOUS
 62
       179
  5
61
 10
12.4924574235
 20
43.3450810388
 30
0.0
 11
12.884574671
 21
42.5629953237
 31
0.0
  0
LINE
  8
0
  6
CONTINUOUS
 62
       179
  5
62
 10
13.0147294052
 20
42.6282514908
 30
0.0
 11
12.5979960114
 21
43.4594346034
 31
0.0
  0
LINE
  8
0
  6
CONTINUOUS
 62
       179
  5
63
 10
14.4319205571
 20
45.0526962892
 30
0.0
 11
17.0222527863
 21
45.0074822652
 31
0.0
  0
LINE
  8
0
  6
CONTINUOUS
 62
       179
  5
64
 10
17.0222527863
 20
45.0074822652
 30
0.0
 11
17.0895389614
 21
44.6955958283
 31
0.0
  0
LINE
  8
0
  6
CONTINUOUS
 62
       179
  5
65
 10
18.1349862676
 20
25.2876654187
 30
0.0
 11
16.5808317109
 21
24.6191022468
 31
0.0
  0
LINE
  8
0
  6
CONTINUOUS
 62
       179
  5
66
 10
13.4423203153
 20
26.5890002075
 30
0.0
 11
14.9676476645
 21
26.5623755196
 31
0.0
  0
LINE
  8
0
  6
CONTINUOUS
 62
       179
  5
67
 10
14.9688227357
 20
26.6296953007
 30
0.0
 11
13.3645041103
 21
26.6576987865
 31
0.0
  0
LINE
  8
0
  6
CONTINUOUS
 62
       179
  5
68
 10
13.6266137865
 20
31.8094814281
 30
0.0
 11
14.6273516777
 21
31.3369408483
 31
0.0
  0
LINE
  8
0
  6
CONTINUOUS
 62
       179
  5
69
 10
14.6589772197
 20
31.4039168488
 30
0.0
 11
13.5937164678
 21
31.9069246171
 31
0.0
  0
LINE
  8
0
  6
CONTINUOUS
 62
       179
  5
6A
 10
13.987934263
 20
37.6752565277
 30
0.0
 11
13.3203126035
 21
38.3724873138
 31
0.0
  0
LINE
  8
0
  6
CONTINUOUS
 62
       179
  5
6B
 10
13.347478389
 20
38.4827678558
 30
0.0
 11
14.0571946074
 21
37.7415756102
 31
0.0
  0
LINE
  8
0
  6
CONTINUOUS
 62
       179
  5
6C
 10
16.0557623677
 20
43.529439282
 30
0.0
 11
16.4478796151
 21
42.747353567
 31
0.0
  0
LINE
  8
0
  6
CONTINUOUS
 62
       179
  5
6D
 10
16.5780343493
 20
42.812609734
 30
0.0
 11
16.1613009555
 21
43.6437928467
 31
0.0
  0
LINE
  8
0
  6
CONTINUOUS
 62
       179
  5
6E
 10
17.9952255013
 20
45.2370545325
 30
0.0
 11
20.5855577305
 21
45.1918405086
 31
0.0
  0
LINE
  8
0
  6
CONTINUOUS
 62
       179
  5
6F
 10
20.5855577305
 20
45.1918405086
 30
0.0
 11
20.6528439055
 21
44.8799540716
 31
0.0
  0
LINE
  8
0
  6
CONTINUOUS
 62
       179
  5
70
 10
21.698291212
 20
25.4720236623
 30
0.0
 11
20.1441366552
 21
24.8034604905
 31
0.0
  0
LINE
  8
0
  6
CONTINUOUS
 62
       179
  5
71
 10
17.0056252597
 20
26.7733584511
 30
0.0
 11
18.5309526088
 21
26.7467337632
 31
0.0
  0
LINE
  8
0
  6
CONTINUOUS
 62
       179
  5
72
 10
18.53212768
 20
26.8140535443
 30
0.0
 11
16.9278090546
 21
26.8420570301
 31
0.0
  0
LINE
  8
0
  6
CONTINUOUS
 62
       179
  5
73
 10
17.0625951643
 20
32.015452812
 30
0.0
 11
18.0633330555
 21
31.5429122323
 31
0.0
  0
LINE
  8
0
  6
CONTINUOUS
 62
       179
  5
74
 10
18.0949585974
 20
31.6098882328
 30
0.0
 11
17.0296978456
 21
32.112896001
 31
0.0
  0
LINE
  8
0
  6
CONTINUOUS
 62
       179
  5
75
 10
17.4239156407
 20
37.8812279117
 30
0.0
 11
16.7562939813
 21
38.5784586979
 31
0.0
  0
LINE
  8
0
  6
CONTINUOUS
 62
       179
  5
76
 10
16.7834597667
 20
38.6887392397
 30
0.0
 11
17.4931759851
 21
37.9475469943
 31
0.0
  0
LINE
  8
0
  6
CONTINUOUS
 62
       179
  5
77
 10
19.4917437455
 20
43.7354106661
 30
0.0
 11
19.8838609929
 21
42.953324951
 31
0.0
  0
LINE
  8
0
  6
CONTINUOUS
 62
       179
  5
78
 10
20.0140157271
 20
43.0185811181
 30
0.0
 11
19.5972823333
 21
43.8497642308
 31
0.0
  0
LINE
  8
0
  6
CONTINUOUS
 62
       179
  5
79
 10
21.4312068791
 20
45.4430259166
 30
0.0
 11
24.0215391083
 21
45.3978118926
 31
0.0
  0
LINE
  8
0
  6
CONTINUOUS
 62
       179
  5
7A
 10
24.0215391083
 20
45.3978118926
 30
0.0
 11
24.0888252833
 21
45.0859254556
 31
0.0
  0
LINE
  8
0
  6
CONTINUOUS
 62
       179
  5
7B
 10
25.1342725897
 20
25.6779950462
 30
0.0
 11
23.580118033
 21
25.0094318745
 31
0.0
  0
LINE
  8
0
  6
CONTINUOUS
 62
       179
  5
7C
 10
20.4416066375
 20
26.9793298351
 30
0.0
 11
21.9669339866
 21
26.9527051472
 31
0.0
  0
LINE
  8
0
  6
CONTINUOUS
 62
       179
  5
7D
 10
21.9681090578
 20
27.0200249282
 30
0.0
 11
20.3637904324
 21
27.0480284141
 31
0.0
  0
LINE
  8
0
  6
CONTINUOUS
 62
       179
  5
7E
 10
21.2260235095
 20
31.8133092947
 30
0.0
 11
22.2267614008
 21
31.340768715
 31
0.0
  0
LINE
  8
0
  6
CONTINUOUS
 62
       179
  5
7F
 10
22.2583869427
 20
31.4077447154
 30
0.0
 11
21.1931261909
 21
31.9107524837
 31
0.0
  0
LINE
  8
0
  6
CONTINUOUS
 62
       179
  5
80
 10
21.5873439861
 20
37.6790843945
 30
0.0
 11
20.9197223266
 21
38.3763151806
 31
0.0
  0
LINE
  8
0
  6
CONTINUOUS
 62
       179
  5
81
 10
20.9468881121
 20
38.4865957225
 30
0.0
 11
21.6566043306
 21
37.745403477
 31
0.0
  0
LINE
  8
0
  6
CONTINUOUS
 62
       179
  5
82
 10
23.6551720909
 20
43.5332671488
 30
0.0
 11
24.0472893384
 21
42.7511814337
 31
0.0
  0
LINE
  8
0
  6
CONTINUOUS
 62
       179
  5
83
 10
24.1774440725
 20
42.8164376008
 30
0.0
 11
23.7607106787
 21
43.6476207135
 31
0.0
  0
LINE
  8
0
  6
CONTINUOUS
 62
       179
  5
84
 10
25.5946352245
 20
45.2408823993
 30
0.0
 11
28.1849674537
 21
45.1956683753
 31
0.0
  0
LINE
  8
0
  6
CONTINUOUS
 62
       179
  5
85
 10
28.1849674537
 20
45.1956683753
 30
0.0
 11
28.2522536287
 21
44.8837819383
 31
0.0
  0
LINE
  8
0
  6
CONTINUOUS
 62
       179
  5
86
 10
29.297700935
 20
25.4758515287
 30
0.0
 11
27.7435463783
 21
24.8072883569
 31
0.0
  0
LINE
  8
0
  6
CONTINUOUS
 62
       179
  5
87
 10
24.6050349827
 20
26.7771863176
 30
0.0
 11
26.1303623319
 21
26.7505616297
 31
0.0
  0
LINE
  8
0
  6
CONTINUOUS
 62
       179
  5
88
 10
26.131537403
 20
26.8178814107
 30
0.0
 11
24.5272187777
 21
26.8458848966
 31
0.0
  0
LINE
  8
0
  6
CONTINUOUS
 62
       179
  5
89
 10
2.96697761
 20
31.3002458903
 30
0.0
 11
3.9677155012
 21
30.8277053105
 31
0.0
  0
LINE
  8
0
  6
CONTINUOUS
 62
       179
  5
8A
 10
3.9993410432
 20
30.8946813111
 30
0.0
 11
2.9340802914
 21
31.3976890793
 31
0.0
  0
LINE
  8
0
  6
CONTINUOUS
 62
       179
  5
8B
 10
3.3282980866
 20
37.16602099
 30
0.0
 11
2.6606764271
 21
37.8632517761
 31
0.0
  0
LINE
  8
0
  6
CONTINUOUS
 62
       179
  5
8C
 10
2.6878422127
 20
37.9735323181
 30
0.0
 11
3.397558431
 21
37.2323400726
 31
0.0
  0
LINE
  8
0
  6
CONTINUOUS
 62
       179
  5
8D
 10
5.3961261914
 20
43.0202037443
 30
0.0
 11
5.7882434389
 21
42.2381180293
 31
0.0
  0
LINE
  8
0
  6
CONTINUOUS
 62
       179
  5
8E
 10
5.918398173
 20
42.3033741963
 30
0.0
 11
5.5016647792
 21
43.134557309
 31
0.0
  0
LINE
  8
0
  6
CONTINUOUS
 62
       179
  5
8F
 10
7.335589325
 20
44.7278189948
 30
0.0
 11
9.9259215542
 21
44.6826049709
 31
0.0
  0
LINE
  8
0
  6
CONTINUOUS
 62
       179
  5
90
 10
9.9259215542
 20
44.6826049709
 30
0.0
 11
9.9932077292
 21
44.3707185339
 31
0.0
  0
LINE
  8
0
  6
CONTINUOUS
 62
       179
  5
91
 10
11.0386550355
 20
24.9627881244
 30
0.0
 11
9.4845004789
 21
24.2942249525
 31
0.0
  0
LINE
  8
0
  6
CONTINUOUS
 62
       179
  5
92
 10
6.3459890832
 20
26.2641229132
 30
0.0
 11
7.8713164323
 21
26.2374982253
 31
0.0
  0
LINE
  8
0
  6
CONTINUOUS
 62
       179
  5
93
 10
7.8724915035
 20
26.3048180064
 30
0.0
 11
6.2681728782
 21
26.3328214922
 31
0.0
  0
LINE
  8
0
  6
CONTINUOUS
 62
       179
  5
94
 10
6.5217730054
 20
31.4879584042
 30
0.0
 11
7.5225108966
 21
31.0154178245
 31
0.0
  0
LINE
  8
0
  6
CONTINUOUS
 62
       179
  5
95
 10
7.5541364386
 20
31.082393825
 30
0.0
 11
6.4888756867
 21
31.5854015932
 31
0.0
  0
LINE
  8
0
  6
CONTINUOUS
 62
       179
  5
96
 10
6.883093482
 20
37.353733504
 30
0.0
 11
6.2154718224
 21
38.0509642902
 31
0.0
  0
LINE
  8
0
  6
CONTINUOUS
 62
       179
  5
97
 10
6.242637608
 20
38.1612448321
 30
0.0
 11
6.9523538264
 21
37.4200525865
 31
0.0
  0
LINE
  8
0
  6
CONTINUOUS
 62
       179
  5
98
 10
8.9509215868
 20
43.2079162585
 30
0.0
 11
9.3430388343
 21
42.4258305433
 31
0.0
  0
LINE
  8
0
  6
CONTINUOUS
 62
       179
  5
99
 10
9.4731935684
 20
42.4910867104
 30
0.0
 11
9.0564601747
 21
43.3222698231
 31
0.0
  0
LINE
  8
0
  6
CONTINUOUS
 62
       179
  5
9A
 10
10.8903847204
 20
44.9155315089
 30
0.0
 11
13.4807169497
 21
44.8703174849
 31
0.0
  0
LINE
  8
0
  6
CONTINUOUS
 62
       179
  5
9B
 10
13.4807169497
 20
44.8703174849
 30
0.0
 11
13.5480031247
 21
44.5584310479
 31
0.0
  0
LINE
  8
0
  6
CONTINUOUS
 62
       179
  5
9C
 10
14.5934504311
 20
25.1505006383
 30
0.0
 11
13.0392958743
 21
24.4819374666
 31
0.0
  0
LINE
  8
0
  6
CONTINUOUS
 62
       179
  5
9D
 10
9.9007844787
 20
26.4518354272
 30
0.0
 11
11.4261118279
 21
26.4252107393
 31
0.0
  0
LINE
  8
0
  6
CONTINUOUS
 62
       179
  5
9E
 10
11.427286899
 20
26.4925305204
 30
0.0
 11
9.8229682737
 21
26.5205340061
 31
0.0
  0
ARC
  8
0
  6
CONTINUOUS
 62
       179
  5
9F
 10
25.9278905992
 20
31.5005881103
 30
0.0
 40
0.0370336318
 50
244.7236865732
 51
64.7236864726
  0
ARC
  8
0
  6
CONTINUOUS
 62
       179
  5
A0
 10
36.0285457972
 20
35.7471409537
 30
0.0
 40
11.7511414083
 50
166.4385360035
 51
198.4042167058
  0
ARC
  8
0
  6
CONTINUOUS
 62
       179
  5
A1
 10
25.3072905858
 20
37.8385753308
 30
0.0
 40
0.0479458445
 50
223.7572194925
 51
43.7572195533
  0
ARC
  8
0
  6
CONTINUOUS
 62
       179
  5
A2
 10
36.0285457972
 20
35.7471409537
 30
0.0
 40
11.7511414083
 50
137.6749951142
 51
165.8847584021
  0
ARC
  8
0
  6
CONTINUOUS
 62
       179
  5
A3
 10
27.7976831329
 20
42.9101409123
 30
0.0
 40
0.0727987331
 50
206.6279846084
 51
26.6279846112
  0
ARC
  8
0
  6
CONTINUOUS
 62
       179
  5
A4
 10
36.0285457972
 20
35.7471409537
 30
0.0
 40
11.7511414083
 50
125.0501111125
 51
136.9162617762
  0
ARC
  8
0
  6
CONTINUOUS
 62
       179
  5
A5
 10
36.0285457972
 20
35.7471409537
 30
0.0
 40
10.1261414083
 50
113.8285675472
 51
252.0268422122
  0
ARC
  8
0
  6
CONTINUOUS
 62
       179
  5
A6
 10
38.4393490028
 20
26.7062440231
 30
0.0
 40
5.5669117004
 50
186.0952183764
 51
191.4390616913
  0
ARC
  8
0
  6
CONTINUOUS
 62
       179
  5
A7
 10
36.0285457972
 20
35.7471409537
 30
0.0
 40
11.7511414084
 50
228.8139865811
 51
246.9568437606
  0
ARC
  8
0
  6
CONTINUOUS
 62
       179
  5
A8
 10
29.8162662949
 20
26.9105529154
 30
0.0
 40
0.0336650179
 50
269.0000001292
 51
89.0
  0
ARC
  8
0
  6
CONTINUOUS
 62
       179
  5
A9
 10
36.0285457972
 20
35.7471409537
 30
0.0
 40
11.7511414083
 50
198.9056736011
 51
228.3078709625
  0
ARC
  8
0
  6
CONTINUOUS
 62
       179
  5
AA
 10
29.4911955432
 20
31.6849463536
 30
0.0
 40
0.0370336318
 50
244.7236865732
 51
64.7236864726
  0
ARC
  8
0
  6
CONTINUOUS
 62
       179
  5
AB
 10
39.5918507413
 20
35.931499197
 30
0.0
 40
11.7511414084
 50
166.4385360035
 51
198.4042167058
  0
ARC
  8
0
  6
CONTINUOUS
 62
       179
  5
AC
 10
28.8705955298
 20
38.0229335741
 30
0.0
 40
0.0479458445
 50
223.7572195752
 51
43.7572195533
  0
ARC
  8
0
  6
CONTINUOUS
 62
       179
  5
AD
 10
39.5918507413
 20
35.931499197
 30
0.0
 40
11.7511414084
 50
137.6749951142
 51
165.8847584021
  0
ARC
  8
0
  6
CONTINUOUS
 62
       179
  5
AE
 10
31.360988077
 20
43.0944991556
 30
0.0
 40
0.0727987331
 50
206.6279845731
 51
26.6279846112
  0
ARC
  8
0
  6
CONTINUOUS
 62
       179
  5
AF
 10
39.5918507413
 20
35.931499197
 30
0.0
 40
11.7511414083
 50
125.0501111125
 51
136.9162617758
  0
ARC
  8
0
  6
CONTINUOUS
 62
       179
  5
B0
 10
39.5918507413
 20
35.931499197
 30
0.0
 40
10.1261414083
 50
113.8285675467
 51
252.0268422122
  0
ARC
  8
0
  6
CONTINUOUS
 62
       179
  5
B1
 10
42.002653947
 20
26.8906022657
 30
0.0
 40
5.5669117004
 50
186.0952183695
 51
191.4390616853
  0
ARC
  8
0
  6
CONTINUOUS
 62
       179
  5
B2
 10
39.5918507413
 20
35.931499197
 30
0.0
 40
11.7511414085
 50
228.8139865811
 51
246.9568437606
  0
ARC
  8
0
  6
CONTINUOUS
 62
       179
  5
B3
 10
33.379571239
 20
27.0949111586
 30
0.0
 40
0.0336650179
 50
268.999999959
 51
89.0
  0
ARC
  8
0
  6
CONTINUOUS
 62
       179
  5
B4
 10
39.5918507413
 20
35.931499197
 30
0.0
 40
11.7511414084
 50
198.9056736011
 51
228.3078709625
  0
ARC
  8
0
  6
CONTINUOUS
 62
       179
  5
B5
 10
32.9271769209
 20
31.8909177376
 30
0.0
 40
0.0370336318
 50
244.7236865072
 51
64.7236864726
  0
ARC
  8
0
  6
CONTINUOUS
 62
       179
  5
B6
 10
43.0278321192
 20
36.137470581
 30
0.0
 40
11.7511414085
 50
166.4385360035
 51
198.4042167058
  0
ARC
  8
0
  6
CONTINUOUS
 62
       179
  5
B7
 10
32.3065769076
 20
38.2289049581
 30
0.0
 40
0.0479458445
 50
223.7572195752
 51
43.7572195533
  0
ARC
  8
0
  6
CONTINUOUS
 62
       179
  5
B8
 10
43.0278321192
 20
36.137470581
 30
0.0
 40
11.7511414084
 50
137.6749951142
 51
165.8847584026
  0
ARC
  8
0
  6
CONTINUOUS
 62
       179
  5
B9
 10
34.7969694547
 20
43.3004705397
 30
0.0
 40
0.0727987331
 50
206.6279846435
 51
26.6279846112
  0
ARC
  8
0
  6
CONTINUOUS
 62
       179
  5
BA
 10
43.0278321192
 20
36.137470581
 30
0.0
 40
11.7511414084
 50
125.0501111124
 51
136.9162617758
  0
ARC
  8
0
  6
CONTINUOUS
 62
       179
  5
BB
 10
43.0278321192
 20
36.137470581
 30
0.0
 40
10.1261414082
 50
113.8285675469
 51
252.0268422122
  0
ARC
  8
0
  6
CONTINUOUS
 62
       179
  5
BC
 10
45.4386353249
 20
27.0965736492
 30
0.0
 40
5.5669117004
 50
186.0952183631
 51
191.4390616807
  0
ARC
  8
0
  6
CONTINUOUS
 62
       179
  5
BD
 10
43.0278321192
 20
36.137470581
 30
0.0
 40
11.7511414085
 50
228.8139865811
 51
246.9568437606
  0
ARC
  8
0
  6
CONTINUOUS
 62
       179
  5
BE
 10
36.8155526168
 20
27.3008825426
 30
0.0
 40
0.0336650179
 50
268.999999956
 51
89.0
  0
ARC
  8
0
  6
CONTINUOUS
 62
       179
  5
BF
 10
43.0278321192
 20
36.137470581
 30
0.0
 40
11.7511414085
 50
198.9056736015
 51
228.3078709628
  0
ARC
  8
0
  6
CONTINUOUS
 62
       179
  5
C0
 10
37.0906052665
 20
31.6887742203
 30
0.0
 40
0.0370336318
 50
244.7236863673
 51
64.7236864726
  0
ARC
  8
0
  6
CONTINUOUS
 62
       179
  5
C1
 10
47.1912604646
 20
35.9353270637
 30
0.0
 40
11.7511414084
 50
166.4385360035
 51
198.4042167058
  0
ARC
  8
0
  6
CONTINUOUS
 62
       179
  5
C2
 10
36.470005253
 20
38.0267614408
 30
0.0
 40
0.0479458445
 50
223.7572195752
 51
43.7572195533
  0
ARC
  8
0
  6
CONTINUOUS
 62
       179
  5
C3
 10
47.1912604646
 20
35.9353270637
 30
0.0
 40
11.7511414083
 50
137.6749951142
 51
165.8847584026
  0
ARC
  8
0
  6
CONTINUOUS
 62
       179
  5
C4
 10
38.9603978002
 20
43.0983270224
 30
0.0
 40
0.0727987331
 50
206.6279846787
 51
26.6279846112
  0
ARC
  8
0
  6
CONTINUOUS
 62
       179
  5
C5
 10
47.1912604646
 20
35.9353270637
 30
0.0
 40
11.7511414083
 50
125.0501111125
 51
136.9162617762
  0
ARC
  8
0
  6
CONTINUOUS
 62
       179
  5
C6
 10
47.1912604646
 20
35.9353270637
 30
0.0
 40
10.1261414083
 50
113.8285675474
 51
252.0268422122
  0
ARC
  8
0
  6
CONTINUOUS
 62
       179
  5
C7
 10
49.6020636703
 20
26.8944301328
 30
0.0
 40
5.5669117004
 50
186.0952183725
 51
191.4390616887
  0
ARC
  8
0
  6
CONTINUOUS
 62
       179
  5
C8
 10
47.1912604646
 20
35.9353270637
 30
0.0
 40
11.7511414084
 50
228.8139865811
 51
246.9568437601
  0
ARC
  8
0
  6
CONTINUOUS
 62
       179
  5
C9
 10
40.9789809623
 20
27.0987390254
 30
0.0
 40
0.0336650179
 50
268.999999956
 51
89.0
  0
ARC
  8
0
  6
CONTINUOUS
 62
       179
  5
CA
 10
47.1912604646
 20
35.9353270637
 30
0.0
 40
11.7511414084
 50
198.9056736015
 51
228.3078709628
  0
ARC
  8
0
  6
CONTINUOUS
 62
       179
  5
CB
 10
40.6259701463
 20
31.8947456044
 30
0.0
 40
0.0370336318
 50
244.7236864333
 51
64.7236864726
  0
ARC
  8
0
  6
CONTINUOUS
 62
       179
  5
CC
 10
50.7266253443
 20
36.1412984478
 30
0.0
 40
11.7511414082
 50
166.4385360035
 51
198.4042167054
  0
ARC
  8
0
  6
CONTINUOUS
 62
       179
  5
CD
 10
40.0053701329
 20
38.2327328249
 30
0.0
 40
0.0479458445
 50
223.7572195752
 51
43.7572195533
  0
ARC
  8
0
  6
CONTINUOUS
 62
       179
  5
CE
 10
50.7266253443
 20
36.1412984478
 30
0.0
 40
11.7511414083
 50
137.6749951142
 51
165.8847584023
  0
ARC
  8
0
  6
CONTINUOUS
 62
       179
  5
CF
 10
42.4957626799
 20
43.3042984064
 30
0.0
 40
0.0727987331
 50
206.6279845731
 51
26.6279846112
  0
ARC
  8
0
  6
CONTINUOUS
 62
       179
  5
D0
 10
50.7266253443
 20
36.1412984478
 30
0.0
 40
11.7511414083
 50
125.0501111125
 51
136.9162617762
  0
ARC
  8
0
  6
CONTINUOUS
 62
       179
  5
D1
 10
50.7266253443
 20
36.1412984478
 30
0.0
 40
10.1261414083
 50
113.8285675472
 51
252.0268422122
  0
ARC
  8
0
  6
CONTINUOUS
 62
       179
  5
D2
 10
53.1374285498
 20
27.1004015178
 30
0.0
 40
5.5669117004
 50
186.0952183829
 51
191.4390616969
  0
ARC
  8
0
  6
CONTINUOUS
 62
       179
  5
D3
 10
50.7266253443
 20
36.1412984478
 30
0.0
 40
11.7511414083
 50
228.8139865811
 51
246.9568437601
  0
ARC
  8
0
  6
CONTINUOUS
 62
       179
  5
D4
 10
44.514345842
 20
27.3047104095
 30
0.0
 40
0.0336650179
 50
268.999999959
 51
88.9999999997
  0
ARC
  8
0
  6
CONTINUOUS
 62
       179
  5
D5
 10
50.7266253443
 20
36.1412984478
 30
0.0
 40
11.7511414083
 50
198.9056736011
 51
228.3078709625
  0
ARC
  8
0
  6
CONTINUOUS
 62
       179
  5
D6
 10
11.0798595042
 20
31.1860706052
 30
0.0
 40
0.0370336318
 50
244.7236865732
 51
64.7236864726
  0
ARC
  8
0
  6
CONTINUOUS
 62
       179
  5
D7
 10
21.1805147024
 20
35.4326234486
 30
0.0
 40
11.7511414084
 50
166.4385360035
 51
198.4042167054
  0
ARC
  8
0
  6
CONTINUOUS
 62
       179
  5
D8
 10
10.4592594909
 20
37.5240578257
 30
0.0
 40
0.0479458445
 50
223.7572195752
 51
43.7572195533
  0
ARC
  8
0
  6
CONTINUOUS
 62
       179
  5
D9
 10
21.1805147024
 20
35.4326234486
 30
0.0
 40
11.7511414084
 50
137.6749951142
 51
165.8847584021
  0
ARC
  8
0
  6
CONTINUOUS
 62
       179
  5
DA
 10
12.9496520381
 20
42.5956234072
 30
0.0
 40
0.0727987331
 50
206.6279845731
 51
26.6279846112
  0
ARC
  8
0
  6
CONTINUOUS
 62
       179
  5
DB
 10
21.1805147024
 20
35.4326234486
 30
0.0
 40
11.7511414083
 50
125.0501111125
 51
136.9162617758
  0
ARC
  8
0
  6
CONTINUOUS
 62
       179
  5
DC
 10
21.1805147024
 20
35.4326234486
 30
0.0
 40
10.1261414083
 50
113.8285675467
 51
252.0268422122
  0
ARC
  8
0
  6
CONTINUOUS
 62
       179
  5
DD
 10
23.5913179081
 20
26.3917265171
 30
0.0
 40
5.5669117004
 50
186.0952183675
 51
191.4390616836
  0
ARC
  8
0
  6
CONTINUOUS
 62
       179
  5
DE
 10
21.1805147024
 20
35.4326234486
 30
0.0
 40
11.7511414085
 50
228.8139865811
 51
246.9568437606
  0
ARC
  8
0
  6
CONTINUOUS
 62
       179
  5
DF
 10
14.9682352001
 20
26.5960354102
 30
0.0
 40
0.0336650179
 50
268.999999959
 51
88.9999999997
  0
ARC
  8
0
  6
CONTINUOUS
 62
       179
  5
E0
 10
21.1805147024
 20
35.4326234486
 30
0.0
 40
11.7511414085
 50
198.9056736011
 51
228.3078709625
  0
ARC
  8
0
  6
CONTINUOUS
 62
       179
  5
E1
 10
14.6431644487
 20
31.3704288486
 30
0.0
 40
0.0370336318
 50
244.7236864333
 51
64.7236864726
  0
ARC
  8
0
  6
CONTINUOUS
 62
       179
  5
E2
 10
24.7438196466
 20
35.6169816919
 30
0.0
 40
11.7511414082
 50
166.4385360035
 51
198.4042167052
  0
ARC
  8
0
  6
CONTINUOUS
 62
       179
  5
E3
 10
14.0225644352
 20
37.708416069
 30
0.0
 40
0.0479458445
 50
223.7572195752
 51
43.7572195533
  0
ARC
  8
0
  6
CONTINUOUS
 62
       179
  5
E4
 10
24.7438196466
 20
35.6169816919
 30
0.0
 40
11.7511414083
 50
137.6749951142
 51
165.8847584023
  0
ARC
  8
0
  6
CONTINUOUS
 62
       179
  5
E5
 10
16.5129569822
 20
42.7799816505
 30
0.0
 40
0.0727987331
 50
206.6279845731
 51
26.6279846112
  0
ARC
  8
0
  6
CONTINUOUS
 62
       179
  5
E6
 10
24.7438196466
 20
35.6169816919
 30
0.0
 40
11.7511414083
 50
125.0501111125
 51
136.9162617762
  0
ARC
  8
0
  6
CONTINUOUS
 62
       179
  5
E7
 10
24.7438196466
 20
35.6169816919
 30
0.0
 40
10.1261414083
 50
113.8285675472
 51
252.0268422122
  0
ARC
  8
0
  6
CONTINUOUS
 62
       179
  5
E8
 10
27.154622852
 20
26.5760847629
 30
0.0
 40
5.5669117004
 50
186.095218393
 51
191.4390617056
  0
ARC
  8
0
  6
CONTINUOUS
 62
       179
  5
E9
 10
24.7438196466
 20
35.6169816919
 30
0.0
 40
11.7511414082
 50
228.8139865811
 51
246.9568437601
  0
ARC
  8
0
  6
CONTINUOUS
 62
       179
  5
EA
 10
18.5315401444
 20
26.7803936537
 30
0.0
 40
0.0336650179
 50
268.999999959
 51
88.9999999997
  0
ARC
  8
0
  6
CONTINUOUS
 62
       179
  5
EB
 10
24.7438196466
 20
35.6169816919
 30
0.0
 40
11.7511414082
 50
198.9056736011
 51
228.3078709621
  0
ARC
  8
0
  6
CONTINUOUS
 62
       179
  5
EC
 10
18.0791458265
 20
31.5764002325
 30
0.0
 40
0.0370336318
 50
244.7236863673
 51
64.7236864726
  0
ARC
  8
0
  6
CONTINUOUS
 62
       179
  5
ED
 10
28.1798010244
 20
35.8229530759
 30
0.0
 40
11.7511414083
 50
166.4385360035
 51
198.4042167057
  0
ARC
  8
0
  6
CONTINUOUS
 62
       179
  5
EE
 10
17.4585458129
 20
37.914387453
 30
0.0
 40
0.0479458445
 50
223.7572195752
 51
43.7572195533
  0
ARC
  8
0
  6
CONTINUOUS
 62
       179
  5
EF
 10
28.1798010244
 20
35.8229530759
 30
0.0
 40
11.7511414083
 50
137.6749951142
 51
165.8847584027
  0
ARC
  8
0
  6
CONTINUOUS
 62
       179
  5
F0
 10
19.94893836
 20
42.9859530345
 30
0.0
 40
0.0727987331
 50
206.6279846434
 51
26.6279846112
  0
ARC
  8
0
  6
CONTINUOUS
 62
       179
  5
F1
 10
28.1798010244
 20
35.8229530759
 30
0.0
 40
11.7511414083
 50
125.0501111125
 51
136.9162617762
  0
ARC
  8
0
  6
CONTINUOUS
 62
       179
  5
F2
 10
28.1798010244
 20
35.8229530759
 30
0.0
 40
10.1261414083
 50
113.8285675474
 51
252.0268422122
  0
ARC
  8
0
  6
CONTINUOUS
 62
       179
  5
F3
 10
30.59060423
 20
26.7820561461
 30
0.0
 40
5.5669117004
 50
186.0952183839
 51
191.4390616986
  0
ARC
  8
0
  6
CONTINUOUS
 62
       179
  5
F4
 10
28.1798010244
 20
35.8229530759
 30
0.0
 40
11.7511414082
 50
228.8139865811
 51
246.9568437601
  0
ARC
  8
0
  6
CONTINUOUS
 62
       179
  5
F5
 10
21.9675215222
 20
26.9863650377
 30
0.0
 40
0.0336650179
 50
268.999999956
 51
89.0
  0
ARC
  8
0
  6
CONTINUOUS
 62
       179
  5
F6
 10
28.1798010244
 20
35.8229530759
 30
0.0
 40
11.7511414082
 50
198.9056736015
 51
228.3078709621
  0
ARC
  8
0
  6
CONTINUOUS
 62
       179
  5
F7
 10
22.2425741717
 20
31.3742567152
 30
0.0
 40
0.0370336318
 50
244.7236865072
 51
64.7236864726
  0
ARC
  8
0
  6
CONTINUOUS
 62
       179
  5
F8
 10
32.3432293698
 20
35.6208095586
 30
0.0
 40
11.7511414084
 50
166.4385360035
 51
198.4042167058
  0
ARC
  8
0
  6
CONTINUOUS
 62
       179
  5
F9
 10
21.6219741583
 20
37.7122439358
 30
0.0
 40
0.0479458445
 50
223.7572195752
 51
43.7572195533
  0
ARC
  8
0
  6
CONTINUOUS
 62
       179
  5
FA
 10
32.3432293698
 20
35.6208095586
 30
0.0
 40
11.7511414083
 50
137.6749951142
 51
165.8847584026
  0
ARC
  8
0
  6
CONTINUOUS
 62
       179
  5
FB
 10
24.1123667054
 20
42.7838095173
 30
0.0
 40
0.0727987331
 50
206.6279846787
 51
26.6279846112
  0
ARC
  8
0
  6
CONTINUOUS
 62
       179
  5
FC
 10
32.3432293698
 20
35.6208095586
 30
0.0
 40
11.7511414083
 50
125.0501111125
 51
136.9162617762
  0
ARC
  8
0
  6
CONTINUOUS
 62
       179
  5
FD
 10
32.3432293698
 20
35.6208095586
 30
0.0
 40
10.1261414083
 50
113.8285675474
 51
252.0268422122
  0
ARC
  8
0
  6
CONTINUOUS
 62
       179
  5
FE
 10
34.7540325755
 20
26.579912627
 30
0.0
 40
5.5669117004
 50
186.0952183653
 51
191.4390616825
  0
ARC
  8
0
  6
CONTINUOUS
 62
       179
  5
FF
 10
32.3432293698
 20
35.6208095586
 30
0.0
 40
11.7511414085
 50
228.8139865811
 51
246.9568437606
  0
ARC
  8
0
  6
CONTINUOUS
 62
       179
  5
100
 10
26.1309498674
 20
26.7842215202
 30
0.0
 40
0.0336650179
 50
269.0000001262
 51
88.9999999996
  0
ARC
  8
0
  6
CONTINUOUS
 62
       179
  5
101
 10
32.3432293698
 20
35.6208095586
 30
0.0
 40
11.7511414084
 50
198.9056736015
 51
228.3078709625
  0
ARC
  8
0
  6
CONTINUOUS
 62
       179
  5
102
 10
3.9835282722
 20
30.8611933108
 30
0.0
 40
0.0370336318
 50
244.7236864333
 51
64.7236864726
  0
ARC
  8
0
  6
CONTINUOUS
 62
       179
  5
103
 10
14.0841834703
 20
35.1077461542
 30
0.0
 40
11.7511414083
 50
166.4385360035
 51
198.4042167054
  0
ARC
  8
0
  6
CONTINUOUS
 62
       179
  5
104
 10
3.3629282588
 20
37.1991805313
 30
0.0
 40
0.0479458445
 50
223.7572195752
 51
43.7572195533
  0
ARC
  8
0
  6
CONTINUOUS
 62
       179
  5
105
 10
14.0841834703
 20
35.1077461542
 30
0.0
 40
11.7511414083
 50
137.6749951142
 51
165.8847584021
  0
ARC
  8
0
  6
CONTINUOUS
 62
       179
  5
106
 10
5.853320806
 20
42.2707461128
 30
0.0
 40
0.0727987331
 50
206.6279846084
 51
26.6279846112
  0
ARC
  8
0
  6
CONTINUOUS
 62
       179
  5
107
 10
14.0841834703
 20
35.1077461542
 30
0.0
 40
11.7511414083
 50
125.0501111125
 51
136.9162617762
  0
ARC
  8
0
  6
CONTINUOUS
 62
       179
  5
108
 10
14.0841834703
 20
35.1077461542
 30
0.0
 40
10.1261414083
 50
113.8285675472
 51
252.0268422122
  0
ARC
  8
0
  6
CONTINUOUS
 62
       179
  5
109
 10
16.4949866759
 20
26.0668492234
 30
0.0
 40
5.5669117004
 50
186.0952183744
 51
191.4390616896
  0
ARC
  8
0
  6
CONTINUOUS
 62
       179
  5
10A
 10
14.0841834703
 20
35.1077461542
 30
0.0
 40
11.7511414084
 50
228.8139865811
 51
246.9568437606
  0
ARC
  8
0
  6
CONTINUOUS
 62
       179
  5
10B
 10
7.8719039679
 20
26.2711581159
 30
0.0
 40
0.0336650179
 50
268.999999959
 51
88.9999999996
  0
ARC
  8
0
  6
CONTINUOUS
 62
       179
  5
10C
 10
14.0841834703
 20
35.1077461542
 30
0.0
 40
11.7511414084
 50
198.9056736011
 51
228.3078709625
  0
ARC
  8
0
  6
CONTINUOUS
 62
       179
  5
10D
 10
7.5383236676
 20
31.0489058247
 30
0.0
 40
0.0370336318
 50
244.7236863673
 51
64.7236864726
  0
ARC
  8
0
  6
CONTINUOUS
 62
       179
  5
10E
 10
17.6389788658
 20
35.2954586682
 30
0.0
 40
11.7511414085
 50
166.4385360035
 51
198.4042167058
  0
ARC
  8
0
  6
CONTINUOUS
 62
       179
  5
10F
 10
6.9177236542
 20
37.3868930453
 30
0.0
 40
0.0479458445
 50
223.7572195752
 51
43.7572195533
  0
ARC
  8
0
  6
CONTINUOUS
 62
       179
  5
110
 10
17.6389788658
 20
35.2954586682
 30
0.0
 40
11.7511414084
 50
137.6749951142
 51
165.8847584026
  0
ARC
  8
0
  6
CONTINUOUS
 62
       179
  5
111
 10
9.4081162013
 20
42.4584586269
 30
0.0
 40
0.0727987331
 50
206.6279846434
 51
26.6279846112
  0
ARC
  8
0
  6
CONTINUOUS
 62
       179
  5
112
 10
17.6389788658
 20
35.2954586682
 30
0.0
 40
11.7511414084
 50
125.0501111124
 51
136.9162617758
  0
ARC
  8
0
  6
CONTINUOUS
 62
       179
  5
113
 10
17.6389788658
 20
35.2954586682
 30
0.0
 40
10.1261414082
 50
113.8285675469
 51
252.0268422122
  0
ARC
  8
0
  6
CONTINUOUS
 62
       179
  5
114
 10
20.0497820714
 20
26.254561738
 30
0.0
 40
5.5669117005
 50
186.0952183799
 51
191.4390616967
  0
ARC
  8
0
  6
CONTINUOUS
 62
       179
  5
115
 10
17.6389788658
 20
35.2954586682
 30
0.0
 40
11.7511414084
 50
228.8139865811
 51
246.9568437606
  0
ARC
  8
0
  6
CONTINUOUS
 62
       179
  5
116
 10
11.4266993635
 20
26.4588706298
 30
0.0
 40
0.0336650179
 50
268.999999956
 51
89.0
  0
ARC
  8
0
  6
CONTINUOUS
 62
       179
  5
117
 10
17.6389788658
 20
35.2954586682
 30
0.0
 40
11.7511414084
 50
198.9056736017
 51
228.3078709628
  0
ENDSEC
  0
EOF
