  0
SECTION
  2
HEADER
  9
$ACADVER
  1
AC1009
  9
$DWGCODEPAGE
  3
ansi_1252
  9
$INSBASE
 10
0.0
 20
0.0
 30
0.0
  9
$EXTMIN
 10
0.0
 20
0.0
 30
0.0
  9
$EXTMAX
 10
48.0
 20
48.0
 30
0.0
  9
$LIMMIN
 10
0.0
 20
0.0
  9
$LIMMAX
 10
0.0
 20
0.0
  9
$ORTHOMODE
 70
         0
  9
$REGENMODE
 70
         1
  9
$FILLMODE
 70
         1
  9
$QTEXTMODE
 70
         0
  9
$MIRRTEXT
 70
         1
  9
$DRAGMODE
 70
         2
  9
$LTSCALE
 40
1.0
  9
$OSMODE
 70
         0
  9
$ATTMODE
 70
         1
  9
$TEXTSIZE
 40
0.1377952756
  9
$TRACEWID
 40
0.05
  9
$TEXTSTYLE
  7
STANDARD
  9
$CLAYER
  8
0
  9
$CELTYPE
  6
CONTINUOUS
  9
$CECOLOR
 62
       256
  9
$DIMSCALE
 40
1.0
  9
$DIMASZ
 40
0.0
  9
$DIMEXO
 40
0.0
  9
$DIMDLI
 40
0.38
  9
$DIMRND
 40
0.0
  9
$DIMDLE
 40
0.0
  9
$DIMEXE
 40
0.18
  9
$DIMTP
 40
0.0
  9
$DIMTM
 40
0.0
  9
$DIMTXT
 40
0.1377952756
  9
$DIMCEN
 40
0.09
  9
$DIMTSZ
 40
0.0
  9
$DIMTOL
 70
         0
  9
$DIMLIM
 70
         0
  9
$DIMTIH
 70
         1
  9
$DIMTOH
 70
         1
  9
$DIMSE1
 70
         0
  9
$DIMSE2
 70
         0
  9
$DIMTAD
 70
         1
  9
$DIMZIN
 70
         0
  9
$DIMBLK
  1

  9
$DIMASO
 70
         1
  9
$DIMSHO
 70
         1
  9
$DIMPOST
  1

  9
$DIMAPOST
  1

  9
$DIMALT
 70
         0
  9
$DIMALTD
 70
         2
  9
$DIMALTF
 40
25.4
  9
$DIMLFAC
 40
1.0
  9
$DIMTOFL
 70
         0
  9
$DIMTVP
 40
0.0
  9
$DIMTIX
 70
         0
  9
$DIMSOXD
 70
         0
  9
$DIMSAH
 70
         0
  9
$DIMBLK1
  1

  9
$DIMBLK2
  1

  9
$DIMSTYLE
  2
STANDARD
  9
$DIMCLRD
 70
         0
  9
$DIMCLRE
 70
         0
  9
$DIMCLRT
 70
         0
  9
$DIMTFAC
 40
1.0
  9
$DIMGAP
 40
0.0
  9
$LUNITS
 70
         2
  9
$LUPREC
 70
         2
  9
$AXISMODE
 70
         0
  9
$AXISUNIT
 10
0.0
 20
0.0
  9
$SKETCHINC
 40
0.1
  9
$FILLETRAD
 40
0.0
  9
$AUNITS
 70
         0
  9
$AUPREC
 70
         2
  9
$MENU
  1
acad
  9
$ELEVATION
 40
0.0
  9
$PELEVATION
 40
0.0
  9
$THICKNESS
 40
0.0
  9
$LIMCHECK
 70
         0
  9
$BLIPMODE
 70
         1
  9
$CHAMFERA
 40
0.0
  9
$CHAMFERB
 40
0.0
  9
$SKPOLY
 70
         0
  9
$TDCREATE
 40
0.000000000
  9
$TDUPDATE
 40
0.000000000
  9
$TDINDWG
 40
0.0000000000
  9
$TDUSRTIMER
 40
0.0000000000
  9
$USRTIMER
 70
         1
  9
$ANGBASE
 50
0.0
  9
$ANGDIR
 70
         0
  9
$PDMODE
 70
         0
  9
$PDSIZE
 40
-1.0
  9
$PLINEWID
 40
0.0
  9
$COORDS
 70
         0
  9
$SPLFRAME
 70
         0
  9
$SPLINETYPE
 70
         6
  9
$SPLINESEGS
 70
         8
  9
$ATTDIA
 70
         0
  9
$ATTREQ
 70
         1
  9
$HANDLING
 70
         1
  9
$HANDSEED
  5
130
  9
$SURFTAB1
 70
         6
  9
$SURFTAB2
 70
         6
  9
$SURFTYPE
 70
         6
  9
$SURFU
 70
         6
  9
$SURFV
 70
         6
  9
$UCSNAME
  2

  9
$UCSORG
 10
0.0
 20
0.0
 30
0.0
  9
$UCSXDIR
 10
1.0
 20
0.0
 30
0.0
  9
$UCSYDIR
 10
0.0
 20
1.0
 30
0.0
  9
$PUCSNAME
  2

  9
$PUCSORG
 10
0.0
 20
0.0
 30
0.0
  9
$PUCSXDIR
 10
1.0
 20
0.0
 30
0.0
  9
$PUCSYDIR
 10
0.0
 20
1.0
 30
0.0
  9
$USERI1
 70
         0
  9
$USERI2
 70
         0
  9
$USERI3
 70
         0
  9
$USERI4
 70
         0
  9
$USERI5
 70
         0
  9
$USERR1
 40
0.0
  9
$USERR2
 40
0.0
  9
$USERR3
 40
0.0
  9
$USERR4
 40
0.0
  9
$USERR5
 40
0.0
  9
$WORLDVIEW
 70
         1
  9
$SHADEDGE
 70
         3
  9
$SHADEDIF
 70
        70
  9
$TILEMODE
 70
         1
  9
$MAXACTVP
 70
        16
  9
$PINSBASE
 10
0.0
 20
0.0
 30
0.0
  9
$PLIMCHECK
 70
         0
  9
$PEXTMIN
 10
1.0000000000E+20
 20
1.0000000000E+20
 30
1.0000000000E+20
  9
$PEXTMAX
 10
-1.0000000000E+20
 20
-1.0000000000E+20
 30
-1.0000000000E+20
  9
$PLIMMIN
 10
0.0
 20
0.0
  9
$PLIMMAX
 10
12.0
 20
9.0
  9
$UNITMODE
 70
         0
  9
$VISRETAIN
 70
         0
  9
$PLINEGEN
 70
         1
  9
$PSLTSCALE
 70
         1
  9
$TREEDEPTH
 70
      3020
  0
ENDSEC
  0
SECTION
  2
TABLES
  0
TABLE
  2
VPORT
 70
         1
  0
VPORT
  2
*ACTIVE
 70
         0
 10
0.0
 20
0.0
 11
1.0
 21
1.0
 12
24.0
 22
24.0
 13
0.0
 23
0.0
 14
1.0
 24
1.0
 15
0.0
 25
0.0
 16
0.0
 26
0.0
 36
1.0
 17
0.0
 27
0.0
 37
0.0
 40
48.0
 41
1.0
 42
50.0
 43
0.0
 44
0.0
 50
0.0
 51
0.0
 71
         0
 72
      2000
 73
         1
 74
         1
 75
         0
 76
         0
 77
         0
 78
         0
  0
ENDTAB
  0
TABLE
  2
LTYPE
 70
         6
  0
LTYPE
  2
CONTINUOUS
 70
        64
  3
Solid line
 72
        65
 73
         0
 40
0.0
  0
LTYPE
  2
HIDDEN
 70
        64
  3
Hidden __ __ __ __ __ __ __ __ __ __ __ __ __ __
 72
        65
 73
         2
 40
0.075
 49
0.05
 49
-0.025
  0
LTYPE
  2
PHANTOM
 70
        64
  3
Phantom ______  __  __  ______  __  __  ______
 72
        65
 73
         6
 40
0.5
 49
0.25
 49
-0.05
 49
0.05
 49
-0.05
 49
0.05
 49
-0.05
  0
LTYPE
  2
CENTER
 70
        64
  3
Center ____ _ ____ _ ____ _ ____ _ ____ _ ____
 72
        65
 73
         4
 40
0.4
 49
0.25
 49
-0.05
 49
0.05
 49
-0.05
  0
LTYPE
  2
CENTERX2
 70
        64
  3
Center (2x) ________  __  ________  __  _____
 72
        65
 73
         4
 40
0.8
 49
0.5
 49
-0.1
 49
0.1
 49
-0.1
  0
LTYPE
  2
DOT2
 70
        64
  3
Dot (.5x) ........................................
 72
        65
 73
         2
 40
0.025
 49
0.0
 49
-0.025
  0
ENDTAB
  0
TABLE
  2
LAYER
 70
         2
  0
LAYER
  2
0
 70
         0
 62
         7
  6
CONTINUOUS
  0
LAYER
  2
DEFPOINTS
 70
         0
 62
         7
  6
CONTINUOUS
  0
ENDTAB
  0
TABLE
  2
STYLE
 70
         1
  0
STYLE
  2
STANDARD
 70
         0
 40
0.0
 41
1.0
 50
0.0
 71
         0
 42
0.0
  3
txt
  4

  0
ENDTAB
  0
TABLE
  2
VIEW
 70
         0
  0
ENDTAB
  0
TABLE
  2
UCS
 70
         0
  0
ENDTAB
  0
TABLE
  2
APPID
 70
         1
  0
APPID
  2
ACAD
 70
         0
  0
ENDTAB
  0
TABLE
  2
DIMSTYLE
 70
         1
  0
DIMSTYLE
  2
STANDARD
 70
         0
  3

  4

  5

  6

  7

 40
1.0
 41
0.18
 42
0.0625
 43
0.38
 44
0.18
 45
0.0
 46
0.0
 47
0.0
 48
0.0
 71
         0
 72
         0
 73
         1
 74
         1
 75
         0
 76
         0
 77
         0
 78
         0
140
0.18
141
0.09
142
0.0
143
25.4
144
1.0
145
0.0
146
1.0
147
0.09
170
         0
171
         2
172
         0
173
         0
174
         0
175
         0
176
         0
177
         0
178
         0
  0
ENDTAB
  0
ENDSEC
  0
SECTION
  2
BLOCKS
  0
ENDSEC
  0
SECTION
  2
ENTITIES
  0
LINE
  8
0
  6
CONTINUOUS
 62
       179
  5
26
 10
33.3802283223
 20
2.9108670283
 30
0.0
 11
33.3628315756
 21
3.0346513134
 31
0.0
  0
LINE
  8
0
  6
CONTINUOUS
 62
       179
  5
27
 10
31.1521249887
 20
2.597727923
 30
0.0
 11
33.3802283223
 21
2.9108670283
 31
0.0
  0
LINE
  8
0
  6
CONTINUOUS
 62
       179
  5
28
 10
29.430786508
 20
21.0131597034
 30
0.0
 11
30.7853428105
 21
21.2035301767
 31
0.0
  0
LINE
  8
0
  6
CONTINUOUS
 62
       179
  5
29
 10
30.6773305101
 20
21.1251589211
 30
0.0
 11
29.4394954242
 21
20.9511925448
 31
0.0
  0
LINE
  8
0
  6
CONTINUOUS
 62
       179
  5
2A
 10
26.115357143
 20
15.9837918562
 30
0.0
 11
27.2695452304
 21
16.712771612
 31
0.0
  0
LINE
  8
0
  6
CONTINUOUS
 62
       179
  5
2B
 10
27.2240844068
 20
16.5964552429
 30
0.0
 11
26.154909274
 21
15.9211692687
 31
0.0
  0
LINE
  8
0
  6
CONTINUOUS
 62
       179
  5
2C
 10
26.871853496
 20
10.4431194003
 30
0.0
 11
26.253152219
 21
9.6147956402
 31
0.0
  0
LINE
  8
0
  6
CONTINUOUS
 62
       179
  5
2D
 10
26.3299785703
 20
9.5574116027
 30
0.0
 11
26.9031087759
 21
10.3247243342
 31
0.0
  0
LINE
  8
0
  6
CONTINUOUS
 62
       179
  5
2E
 10
29.3128946474
 20
4.880297168
 30
0.0
 11
29.6110146506
 21
5.7162231926
 31
0.0
  0
LINE
  8
0
  6
CONTINUOUS
 62
       179
  5
2F
 10
29.7261933655
 20
5.6057435975
 30
0.0
 11
29.4500319542
 21
4.8313892825
 31
0.0
  0
LINE
  8
0
  6
CONTINUOUS
 62
       179
  5
30
 10
33.3628315756
 20
3.0346513134
 30
0.0
 11
31.8757900536
 21
4.0535376513
 31
0.0
  0
LINE
  8
0
  6
CONTINUOUS
 62
       179
  5
31
 10
36.7769150514
 20
2.9621071096
 30
0.0
 11
36.7595183046
 21
3.0858913947
 31
0.0
  0
LINE
  8
0
  6
CONTINUOUS
 62
       179
  5
32
 10
34.5488117179
 20
2.6489680044
 30
0.0
 11
36.7769150514
 21
2.9621071096
 31
0.0
  0
LINE
  8
0
  6
CONTINUOUS
 62
       179
  5
33
 10
32.8274732372
 20
21.0643997845
 30
0.0
 11
34.1820295398
 21
21.254770258
 31
0.0
  0
LINE
  8
0
  6
CONTINUOUS
 62
       179
  5
34
 10
34.0740172393
 20
21.1763990023
 30
0.0
 11
32.8361821534
 21
21.0024326261
 31
0.0
  0
LINE
  8
0
  6
CONTINUOUS
 62
       179
  5
35
 10
29.5120438723
 20
16.0350319375
 30
0.0
 11
30.6662319596
 21
16.7640116933
 31
0.0
  0
LINE
  8
0
  6
CONTINUOUS
 62
       179
  5
36
 10
30.620771136
 20
16.6476953242
 30
0.0
 11
29.5515960033
 21
15.9724093499
 31
0.0
  0
LINE
  8
0
  6
CONTINUOUS
 62
       179
  5
37
 10
30.2685402252
 20
10.4943594817
 30
0.0
 11
29.6498389481
 21
9.6660357215
 31
0.0
  0
LINE
  8
0
  6
CONTINUOUS
 62
       179
  5
38
 10
29.7266652994
 20
9.608651684
 30
0.0
 11
30.2997955051
 21
10.3759644155
 31
0.0
  0
LINE
  8
0
  6
CONTINUOUS
 62
       179
  5
39
 10
32.7095813766
 20
4.9315372494
 30
0.0
 11
33.0077013798
 21
5.767463274
 31
0.0
  0
LINE
  8
0
  6
CONTINUOUS
 62
       179
  5
3A
 10
33.1228800947
 20
5.6569836788
 30
0.0
 11
32.8467186834
 21
4.8826293638
 31
0.0
  0
LINE
  8
0
  6
CONTINUOUS
 62
       179
  5
3B
 10
36.7595183046
 20
3.0858913947
 30
0.0
 11
35.2724767828
 21
4.1047777326
 31
0.0
  0
LINE
  8
0
  6
CONTINUOUS
 62
       179
  5
3C
 10
40.0722703056
 20
2.8866251643
 30
0.0
 11
40.0548735588
 21
3.0104094494
 31
0.0
  0
LINE
  8
0
  6
CONTINUOUS
 62
       179
  5
3D
 10
37.844166972
 20
2.573486059
 30
0.0
 11
40.0722703056
 21
2.8866251643
 31
0.0
  0
LINE
  8
0
  6
CONTINUOUS
 62
       179
  5
3E
 10
36.1228284914
 20
20.9889178393
 30
0.0
 11
37.4773847939
 21
21.1792883127
 31
0.0
  0
LINE
  8
0
  6
CONTINUOUS
 62
       179
  5
3F
 10
37.3693724935
 20
21.100917057
 30
0.0
 11
36.1315374076
 21
20.9269506809
 31
0.0
  0
LINE
  8
0
  6
CONTINUOUS
 62
       179
  5
40
 10
32.8073991264
 20
15.9595499922
 30
0.0
 11
33.9615872138
 21
16.6885297479
 31
0.0
  0
LINE
  8
0
  6
CONTINUOUS
 62
       179
  5
41
 10
33.9161263901
 20
16.5722133789
 30
0.0
 11
32.8469512574
 21
15.8969274047
 31
0.0
  0
LINE
  8
0
  6
CONTINUOUS
 62
       179
  5
42
 10
33.5638954793
 20
10.4188775363
 30
0.0
 11
32.9451942023
 21
9.5905537762
 31
0.0
  0
LINE
  8
0
  6
CONTINUOUS
 62
       179
  5
43
 10
33.0220205535
 20
9.5331697387
 30
0.0
 11
33.5951507592
 21
10.3004824702
 31
0.0
  0
LINE
  8
0
  6
CONTINUOUS
 62
       179
  5
44
 10
36.0049366307
 20
4.856055304
 30
0.0
 11
36.3030566339
 21
5.6919813286
 31
0.0
  0
LINE
  8
0
  6
CONTINUOUS
 62
       179
  5
45
 10
36.4182353488
 20
5.5815017335
 30
0.0
 11
36.1420739375
 21
4.8071474185
 31
0.0
  0
LINE
  8
0
  6
CONTINUOUS
 62
       179
  5
46
 10
40.0548735588
 20
3.0104094494
 30
0.0
 11
38.5678320369
 21
4.0292957873
 31
0.0
  0
LINE
  8
0
  6
CONTINUOUS
 62
       179
  5
47
 10
43.3269100908
 20
2.8410798576
 30
0.0
 11
43.3095133441
 21
2.9648641426
 31
0.0
  0
LINE
  8
0
  6
CONTINUOUS
 62
       179
  5
48
 10
41.0988067573
 20
2.5279407523
 30
0.0
 11
43.3269100908
 21
2.8410798576
 31
0.0
  0
LINE
  8
0
  6
CONTINUOUS
 62
       179
  5
49
 10
39.3774682767
 20
20.9433725324
 30
0.0
 11
40.7320245793
 21
21.1337430059
 31
0.0
  0
LINE
  8
0
  6
CONTINUOUS
 62
       179
  5
4A
 10
40.6240122788
 20
21.0553717501
 30
0.0
 11
39.3861771929
 21
20.8814053739
 31
0.0
  0
LINE
  8
0
  6
CONTINUOUS
 62
       179
  5
4B
 10
36.0620389118
 20
15.9140046853
 30
0.0
 11
37.2162269993
 21
16.6429844412
 31
0.0
  0
LINE
  8
0
  6
CONTINUOUS
 62
       179
  5
4C
 10
37.1707661756
 20
16.526668072
 30
0.0
 11
36.1015910429
 21
15.8513820978
 31
0.0
  0
LINE
  8
0
  6
CONTINUOUS
 62
       179
  5
4D
 10
36.8185352648
 20
10.3733322296
 30
0.0
 11
36.1998339877
 21
9.5450084694
 31
0.0
  0
LINE
  8
0
  6
CONTINUOUS
 62
       179
  5
4E
 10
36.2766603391
 20
9.4876244319
 30
0.0
 11
36.8497905446
 21
10.2549371634
 31
0.0
  0
LINE
  8
0
  6
CONTINUOUS
 62
       179
  5
4F
 10
39.2595764161
 20
4.8105099973
 30
0.0
 11
39.5576964193
 21
5.6464360219
 31
0.0
  0
LINE
  8
0
  6
CONTINUOUS
 62
       179
  5
50
 10
39.6728751342
 20
5.5359564267
 30
0.0
 11
39.3967137228
 21
4.7616021117
 31
0.0
  0
LINE
  8
0
  6
CONTINUOUS
 62
       179
  5
51
 10
43.3095133441
 20
2.9648641426
 30
0.0
 11
41.8224718223
 21
3.9837504805
 31
0.0
  0
LINE
  8
0
  6
CONTINUOUS
 62
       179
  5
52
 10
47.0177110464
 20
2.8119844171
 30
0.0
 11
47.0003142996
 21
2.9357687023
 31
0.0
  0
LINE
  8
0
  6
CONTINUOUS
 62
       179
  5
53
 10
44.7896077129
 20
2.4988453119
 30
0.0
 11
47.0177110464
 21
2.8119844171
 31
0.0
  0
LINE
  8
0
  6
CONTINUOUS
 62
       179
  5
54
 10
43.0682692322
 20
20.9142770921
 30
0.0
 11
44.4228255348
 21
21.1046475655
 31
0.0
  0
LINE
  8
0
  6
CONTINUOUS
 62
       179
  5
55
 10
44.3148132343
 20
21.0262763098
 30
0.0
 11
43.0769781484
 21
20.8523099336
 31
0.0
  0
LINE
  8
0
  6
CONTINUOUS
 62
       179
  5
56
 10
39.7528398673
 20
15.8849092451
 30
0.0
 11
40.9070279546
 21
16.6138890008
 31
0.0
  0
LINE
  8
0
  6
CONTINUOUS
 62
       179
  5
57
 10
40.861567131
 20
16.4975726317
 30
0.0
 11
39.7923919983
 21
15.8222866575
 31
0.0
  0
LINE
  8
0
  6
CONTINUOUS
 62
       179
  5
58
 10
40.5093362202
 20
10.3442367892
 30
0.0
 11
39.8906349431
 21
9.515913029
 31
0.0
  0
LINE
  8
0
  6
CONTINUOUS
 62
       179
  5
59
 10
39.9674612944
 20
9.4585289915
 30
0.0
 11
40.5405915001
 21
10.225841723
 31
0.0
  0
LINE
  8
0
  6
CONTINUOUS
 62
       179
  5
5A
 10
42.9503773716
 20
4.7814145569
 30
0.0
 11
43.2484973748
 21
5.6173405815
 31
0.0
  0
LINE
  8
0
  6
CONTINUOUS
 62
       179
  5
5B
 10
43.3636760897
 20
5.5068609863
 30
0.0
 11
43.0875146783
 21
4.7325066714
 31
0.0
  0
LINE
  8
0
  6
CONTINUOUS
 62
       179
  5
5C
 10
47.0003142996
 20
2.9357687023
 30
0.0
 11
45.5132727778
 21
3.9546550401
 31
0.0
  0
LINE
  8
0
  6
CONTINUOUS
 62
       179
  5
5D
 10
23.4569002661
 20
2.8590003519
 30
0.0
 11
23.4395035193
 21
2.982784637
 31
0.0
  0
LINE
  8
0
  6
CONTINUOUS
 62
       179
  5
5E
 10
21.2287969326
 20
2.5458612467
 30
0.0
 11
23.4569002661
 21
2.8590003519
 31
0.0
  0
LINE
  8
0
  6
CONTINUOUS
 62
       179
  5
5F
 10
19.5074584519
 20
20.9612930269
 30
0.0
 11
20.8620147544
 21
21.1516635004
 31
0.0
  0
LINE
  8
0
  6
CONTINUOUS
 62
       179
  5
60
 10
20.754002454
 20
21.0732922446
 30
0.0
 11
19.5161673681
 21
20.8993258685
 31
0.0
  0
LINE
  8
0
  6
CONTINUOUS
 62
       179
  5
61
 10
16.192029087
 20
15.9319251798
 30
0.0
 11
17.3462171744
 21
16.6609049356
 31
0.0
  0
LINE
  8
0
  6
CONTINUOUS
 62
       179
  5
62
 10
17.3007563507
 20
16.5445885665
 30
0.0
 11
16.231581218
 21
15.8693025922
 31
0.0
  0
LINE
  8
0
  6
CONTINUOUS
 62
       179
  5
63
 10
16.9485254399
 20
10.391252724
 30
0.0
 11
16.3298241629
 21
9.5629289638
 31
0.0
  0
LINE
  8
0
  6
CONTINUOUS
 62
       179
  5
64
 10
16.4066505142
 20
9.5055449263
 30
0.0
 11
16.9797807198
 21
10.2728576577
 31
0.0
  0
LINE
  8
0
  6
CONTINUOUS
 62
       179
  5
65
 10
19.3895665913
 20
4.8284304917
 30
0.0
 11
19.6876865945
 21
5.6643565163
 31
0.0
  0
LINE
  8
0
  6
CONTINUOUS
 62
       179
  5
66
 10
19.8028653094
 20
5.5538769211
 30
0.0
 11
19.5267038981
 21
4.7795226061
 31
0.0
  0
LINE
  8
0
  6
CONTINUOUS
 62
       179
  5
67
 10
23.4395035193
 20
2.982784637
 30
0.0
 11
21.9524619975
 21
4.0016709749
 31
0.0
  0
LINE
  8
0
  6
CONTINUOUS
 62
       179
  5
68
 10
26.8535869953
 20
2.9102404332
 30
0.0
 11
26.8361902485
 21
3.0340247184
 31
0.0
  0
LINE
  8
0
  6
CONTINUOUS
 62
       179
  5
69
 10
24.6254836618
 20
2.597101328
 30
0.0
 11
26.8535869953
 21
2.9102404332
 31
0.0
  0
LINE
  8
0
  6
CONTINUOUS
 62
       179
  5
6A
 10
22.9041451811
 20
21.0125331082
 30
0.0
 11
24.2587014837
 21
21.2029035816
 31
0.0
  0
LINE
  8
0
  6
CONTINUOUS
 62
       179
  5
6B
 10
24.1506891832
 20
21.1245323259
 30
0.0
 11
22.9128540973
 21
20.9505659497
 31
0.0
  0
LINE
  8
0
  6
CONTINUOUS
 62
       179
  5
6C
 10
19.5887158161
 20
15.9831652612
 30
0.0
 11
20.7429039035
 21
16.7121450169
 31
0.0
  0
LINE
  8
0
  6
CONTINUOUS
 62
       179
  5
6D
 10
20.6974430799
 20
16.5958286478
 30
0.0
 11
19.6282679472
 21
15.9205426736
 31
0.0
  0
LINE
  8
0
  6
CONTINUOUS
 62
       179
  5
6E
 10
20.3452121691
 20
10.4424928053
 30
0.0
 11
19.726510892
 21
9.6141690451
 31
0.0
  0
LINE
  8
0
  6
CONTINUOUS
 62
       179
  5
6F
 10
19.8033372433
 20
9.5567850076
 30
0.0
 11
20.376467449
 21
10.3240977391
 31
0.0
  0
LINE
  8
0
  6
CONTINUOUS
 62
       179
  5
70
 10
22.7862533205
 20
4.879670573
 30
0.0
 11
23.0843733237
 21
5.7155965976
 31
0.0
  0
LINE
  8
0
  6
CONTINUOUS
 62
       179
  5
71
 10
23.1995520386
 20
5.6051170024
 30
0.0
 11
22.9233906272
 21
4.8307626875
 31
0.0
  0
LINE
  8
0
  6
CONTINUOUS
 62
       179
  5
72
 10
26.8361902485
 20
3.0340247184
 30
0.0
 11
25.3491487267
 21
4.0529110562
 31
0.0
  0
LINE
  8
0
  6
CONTINUOUS
 62
       179
  5
73
 10
20.1682107578
 20
2.9004211952
 30
0.0
 11
20.1508140111
 21
3.0242054802
 31
0.0
  0
LINE
  8
0
  6
CONTINUOUS
 62
       179
  5
74
 10
17.9401074242
 20
2.5872820899
 30
0.0
 11
20.1682107578
 21
2.9004211952
 31
0.0
  0
LINE
  8
0
  6
CONTINUOUS
 62
       179
  5
75
 10
16.2187689435
 20
21.0027138702
 30
0.0
 11
17.573325246
 21
21.1930843437
 31
0.0
  0
LINE
  8
0
  6
CONTINUOUS
 62
       179
  5
76
 10
17.4653129456
 20
21.1147130879
 30
0.0
 11
16.2274778597
 21
20.9407467118
 31
0.0
  0
LINE
  8
0
  6
CONTINUOUS
 62
       179
  5
77
 10
12.9033395785
 20
15.973346023
 30
0.0
 11
14.0575276659
 21
16.7023257789
 31
0.0
  0
LINE
  8
0
  6
CONTINUOUS
 62
       179
  5
78
 10
14.0120668423
 20
16.5860094097
 30
0.0
 11
12.9428917095
 21
15.9107234355
 31
0.0
  0
LINE
  8
0
  6
CONTINUOUS
 62
       179
  5
79
 10
13.6598359315
 20
10.4326735672
 30
0.0
 11
13.0411346545
 21
9.6043498071
 31
0.0
  0
LINE
  8
0
  6
CONTINUOUS
 62
       179
  5
7A
 10
13.1179610059
 20
9.5469657695
 30
0.0
 11
13.6910912114
 21
10.314278501
 31
0.0
  0
LINE
  8
0
  6
CONTINUOUS
 62
       179
  5
7B
 10
16.1008770829
 20
4.8698513349
 30
0.0
 11
16.3989970861
 21
5.7057773595
 31
0.0
  0
LINE
  8
0
  6
CONTINUOUS
 62
       179
  5
7C
 10
16.5141758011
 20
5.5952977643
 30
0.0
 11
16.2380143897
 21
4.8209434493
 31
0.0
  0
LINE
  8
0
  6
CONTINUOUS
 62
       179
  5
7D
 10
20.1508140111
 20
3.0242054802
 30
0.0
 11
18.6637724891
 21
4.0430918182
 31
0.0
  0
LINE
  8
0
  6
CONTINUOUS
 62
       179
  5
7E
 10
30.0547839685
 20
2.9205385956
 30
0.0
 11
30.0373872217
 21
3.0443228806
 31
0.0
  0
LINE
  8
0
  6
CONTINUOUS
 62
       179
  5
7F
 10
27.8266806349
 20
2.6073994903
 30
0.0
 11
30.0547839685
 21
2.9205385956
 31
0.0
  0
LINE
  8
0
  6
CONTINUOUS
 62
       179
  5
80
 10
26.1053421543
 20
21.0228312704
 30
0.0
 11
27.4598984569
 21
21.2132017439
 31
0.0
  0
LINE
  8
0
  6
CONTINUOUS
 62
       179
  5
81
 10
27.3518861564
 20
21.1348304881
 30
0.0
 11
26.1140510705
 21
20.9608641119
 31
0.0
  0
LINE
  8
0
  6
CONTINUOUS
 62
       179
  5
82
 10
22.7899127894
 20
15.9934634233
 30
0.0
 11
23.9441008769
 21
16.7224431792
 31
0.0
  0
LINE
  8
0
  6
CONTINUOUS
 62
       179
  5
83
 10
23.8986400532
 20
16.60612681
 30
0.0
 11
22.8294649205
 21
15.9308408358
 31
0.0
  0
LINE
  8
0
  6
CONTINUOUS
 62
       179
  5
84
 10
23.5464091424
 20
10.4527909676
 30
0.0
 11
22.9277078653
 21
9.6244672075
 31
0.0
  0
LINE
  8
0
  6
CONTINUOUS
 62
       179
  5
85
 10
23.0045342167
 20
9.5670831699
 30
0.0
 11
23.5776644222
 21
10.3343959014
 31
0.0
  0
LINE
  8
0
  6
CONTINUOUS
 62
       179
  5
86
 10
25.9874502937
 20
4.8899687353
 30
0.0
 11
26.2855702969
 21
5.7258947599
 31
0.0
  0
LINE
  8
0
  6
CONTINUOUS
 62
       179
  5
87
 10
26.4007490118
 20
5.6154151647
 30
0.0
 11
26.1245876004
 21
4.8410608497
 31
0.0
  0
LINE
  8
0
  6
CONTINUOUS
 62
       179
  5
88
 10
30.0373872217
 20
3.0443228806
 30
0.0
 11
28.5503456999
 21
4.0632092185
 31
0.0
  0
LINE
  8
0
  6
CONTINUOUS
 62
       179
  5
89
 10
16.8937854929
 20
2.8647970091
 30
0.0
 11
16.8763887461
 21
2.9885812942
 31
0.0
  0
LINE
  8
0
  6
CONTINUOUS
 62
       179
  5
8A
 10
14.6656821593
 20
2.5516579038
 30
0.0
 11
16.8937854929
 21
2.8647970091
 31
0.0
  0
LINE
  8
0
  6
CONTINUOUS
 62
       179
  5
8B
 10
12.9443436787
 20
20.9670896841
 30
0.0
 11
14.2988999812
 21
21.1574601575
 31
0.0
  0
LINE
  8
0
  6
CONTINUOUS
 62
       179
  5
8C
 10
14.1908876808
 20
21.0790889018
 30
0.0
 11
12.9530525948
 21
20.9051225256
 31
0.0
  0
LINE
  8
0
  6
CONTINUOUS
 62
       179
  5
8D
 10
9.6289143137
 20
15.937721837
 30
0.0
 11
10.7831024011
 21
16.6667015927
 31
0.0
  0
LINE
  8
0
  6
CONTINUOUS
 62
       179
  5
8E
 10
10.7376415774
 20
16.5503852237
 30
0.0
 11
9.6684664447
 21
15.8750992495
 31
0.0
  0
LINE
  8
0
  6
CONTINUOUS
 62
       179
  5
8F
 10
10.3854106666
 20
10.3970493811
 30
0.0
 11
9.7667093895
 21
9.568725621
 31
0.0
  0
LINE
  8
0
  6
CONTINUOUS
 62
       179
  5
90
 10
9.8435357408
 20
9.5113415835
 30
0.0
 11
10.4166659465
 21
10.278654315
 31
0.0
  0
LINE
  8
0
  6
CONTINUOUS
 62
       179
  5
91
 10
12.826451818
 20
4.8342271488
 30
0.0
 11
13.1245718212
 21
5.6701531734
 31
0.0
  0
LINE
  8
0
  6
CONTINUOUS
 62
       179
  5
92
 10
13.2397505361
 20
5.5596735783
 30
0.0
 11
12.9635891248
 21
4.7853192633
 31
0.0
  0
LINE
  8
0
  6
CONTINUOUS
 62
       179
  5
93
 10
16.8763887461
 20
2.9885812942
 30
0.0
 11
15.3893472242
 21
4.0074676321
 31
0.0
  0
LINE
  8
0
  6
CONTINUOUS
 62
       179
  5
94
 10
13.6050959845
 20
2.9062178523
 30
0.0
 11
13.5876992378
 21
3.0300021374
 31
0.0
  0
LINE
  8
0
  6
CONTINUOUS
 62
       179
  5
95
 10
11.3769926509
 20
2.593078747
 30
0.0
 11
13.6050959845
 21
2.9062178523
 31
0.0
  0
LINE
  8
0
  6
CONTINUOUS
 62
       179
  5
96
 10
9.6556541702
 20
21.0085105274
 30
0.0
 11
11.0102104727
 21
21.1988810007
 31
0.0
  0
LINE
  8
0
  6
CONTINUOUS
 62
       179
  5
97
 10
10.9021981723
 20
21.1205097451
 30
0.0
 11
9.6643630864
 21
20.9465433688
 31
0.0
  0
LINE
  8
0
  6
CONTINUOUS
 62
       179
  5
98
 10
6.3402248052
 20
15.9791426802
 30
0.0
 11
7.4944128926
 21
16.708122436
 31
0.0
  0
LINE
  8
0
  6
CONTINUOUS
 62
       179
  5
99
 10
7.448952069
 20
16.5918060669
 30
0.0
 11
6.3797769362
 21
15.9165200927
 31
0.0
  0
LINE
  8
0
  6
CONTINUOUS
 62
       179
  5
9A
 10
7.0967211582
 20
10.4384702243
 30
0.0
 11
6.4780198812
 21
9.6101464642
 31
0.0
  0
LINE
  8
0
  6
CONTINUOUS
 62
       179
  5
9B
 10
6.5548462325
 20
9.5527624267
 30
0.0
 11
7.1279764381
 21
10.3200751582
 31
0.0
  0
LINE
  8
0
  6
CONTINUOUS
 62
       179
  5
9C
 10
9.5377623096
 20
4.875647992
 30
0.0
 11
9.8358823128
 21
5.7115740166
 31
0.0
  0
LINE
  8
0
  6
CONTINUOUS
 62
       179
  5
9D
 10
9.9510610277
 20
5.6010944215
 30
0.0
 11
9.6748996164
 21
4.8267401065
 31
0.0
  0
LINE
  8
0
  6
CONTINUOUS
 62
       179
  5
9E
 10
13.5876992378
 20
3.0300021374
 30
0.0
 11
12.1006577158
 21
4.0488884753
 31
0.0
  0
LINE
  8
0
  6
CONTINUOUS
 62
       179
  5
9F
 10
10.0981429534
 20
2.9623724573
 30
0.0
 11
10.0807462067
 21
3.0861567425
 31
0.0
  0
LINE
  8
0
  6
CONTINUOUS
 62
       179
  5
A0
 10
7.8700396198
 20
2.6492333521
 30
0.0
 11
10.0981429534
 21
2.9623724573
 31
0.0
  0
LINE
  8
0
  6
CONTINUOUS
 62
       179
  5
A1
 10
6.1487011391
 20
21.0646651325
 30
0.0
 11
7.5032574416
 21
21.2550356059
 31
0.0
  0
LINE
  8
0
  6
CONTINUOUS
 62
       179
  5
A2
 10
7.3952451412
 20
21.1766643502
 30
0.0
 11
6.1574100553
 21
21.002697974
 31
0.0
  0
LINE
  8
0
  6
CONTINUOUS
 62
       179
  5
A3
 10
2.8332717741
 20
16.0352972854
 30
0.0
 11
3.9874598615
 21
16.7642770411
 31
0.0
  0
LINE
  8
0
  6
CONTINUOUS
 62
       179
  5
A4
 10
3.9419990379
 20
16.647960672
 30
0.0
 11
2.8728239052
 21
15.9726746978
 31
0.0
  0
LINE
  8
0
  6
CONTINUOUS
 62
       179
  5
A5
 10
3.5897681271
 20
10.4946248294
 30
0.0
 11
2.9710668501
 21
9.6663010693
 31
0.0
  0
LINE
  8
0
  6
CONTINUOUS
 62
       179
  5
A6
 10
3.0478932014
 20
9.6089170317
 30
0.0
 11
3.621023407
 21
10.3762297633
 31
0.0
  0
LINE
  8
0
  6
CONTINUOUS
 62
       179
  5
A7
 10
6.0308092785
 20
4.9318025971
 30
0.0
 11
6.3289292817
 21
5.7677286217
 31
0.0
  0
LINE
  8
0
  6
CONTINUOUS
 62
       179
  5
A8
 10
6.4441079967
 20
5.6572490265
 30
0.0
 11
6.1679465853
 21
4.8828947116
 31
0.0
  0
LINE
  8
0
  6
CONTINUOUS
 62
       179
  5
A9
 10
10.0807462067
 20
3.0861567425
 30
0.0
 11
8.5937046847
 21
4.1050430804
 31
0.0
  0
ARC
  8
0
  6
CONTINUOUS
 62
       179
  5
AA
 10
37.4930823152
 20
22.2648535507
 30
0.0
 40
5.0915929259
 50
159.6871230699
 51
181.315681767
  0
ARC
  8
0
  6
CONTINUOUS
 62
       179
  5
AB
 10
36.6780242613
 20
12.9685410969
 30
0.0
 40
10.1261414085
 50
114.973159038
 51
125.5862362465
  0
ARC
  8
0
  6
CONTINUOUS
 62
       179
  5
AC
 10
29.4351409661
 20
20.9821761241
 30
0.0
 40
0.0312880726
 50
98.0000000056
 51
278.0
  0
ARC
  8
0
  6
CONTINUOUS
 62
       179
  5
AD
 10
36.6780242613
 20
12.9685410969
 30
0.0
 40
10.1261414085
 50
126.3413250447
 51
158.2992536016
  0
ARC
  8
0
  6
CONTINUOUS
 62
       179
  5
AE
 10
26.1351332085
 20
15.9524805625
 30
0.0
 40
0.0370336318
 50
122.2763134249
 51
302.2763135274
  0
ARC
  8
0
  6
CONTINUOUS
 62
       179
  5
AF
 10
36.6780242613
 20
12.9685410969
 30
0.0
 40
10.1261414084
 50
159.0058811661
 51
194.4417882712
  0
ARC
  8
0
  6
CONTINUOUS
 62
       179
  5
B0
 10
26.2915653947
 20
9.5861036215
 30
0.0
 40
0.0479458445
 50
143.2427805006
 51
323.2427804467
  0
ARC
  8
0
  6
CONTINUOUS
 62
       179
  5
B1
 10
36.6780242613
 20
12.9685410969
 30
0.0
 40
10.1261414083
 50
195.1346461501
 51
225.7414308019
  0
ARC
  8
0
  6
CONTINUOUS
 62
       179
  5
B2
 10
29.3814633008
 20
4.8558432253
 30
0.0
 40
0.0727987331
 50
160.372015441
 51
340.3720153888
  0
ARC
  8
0
  6
CONTINUOUS
 62
       179
  5
B3
 10
36.6780242613
 20
12.9685410969
 30
0.0
 40
10.1261414083
 50
226.6444845865
 51
241.69003902
  0
ARC
  8
0
  6
CONTINUOUS
 62
       179
  5
B4
 10
36.6780242613
 20
12.9685410969
 30
0.0
 40
11.7511415895
 50
109.6929536556
 51
241.9498888875
  0
ARC
  8
0
  6
CONTINUOUS
 62
       179
  5
B5
 10
40.8897690444
 20
22.3160936322
 30
0.0
 40
5.0915929259
 50
159.6871230716
 51
181.3156817701
  0
ARC
  8
0
  6
CONTINUOUS
 62
       179
  5
B6
 10
40.0747109904
 20
13.0197811783
 30
0.0
 40
10.1261414084
 50
114.9731590382
 51
125.5862362465
  0
ARC
  8
0
  6
CONTINUOUS
 62
       179
  5
B7
 10
32.8318276953
 20
21.0334162053
 30
0.0
 40
0.0312880726
 50
98.0000000311
 51
278.0
  0
ARC
  8
0
  6
CONTINUOUS
 62
       179
  5
B8
 10
40.0747109904
 20
13.0197811783
 30
0.0
 40
10.1261414084
 50
126.3413250451
 51
158.2992536016
  0
ARC
  8
0
  6
CONTINUOUS
 62
       179
  5
B9
 10
29.5318199377
 20
16.0037206437
 30
0.0
 40
0.0370336318
 50
122.2763134249
 51
302.2763135274
  0
ARC
  8
0
  6
CONTINUOUS
 62
       179
  5
BA
 10
40.0747109904
 20
13.0197811783
 30
0.0
 40
10.1261414084
 50
159.0058811668
 51
194.4417882712
  0
ARC
  8
0
  6
CONTINUOUS
 62
       179
  5
BB
 10
29.6882521237
 20
9.6373437028
 30
0.0
 40
0.0479458445
 50
143.2427804049
 51
323.2427804467
  0
ARC
  8
0
  6
CONTINUOUS
 62
       179
  5
BC
 10
40.0747109904
 20
13.0197811783
 30
0.0
 40
10.1261414083
 50
195.1346461501
 51
225.7414308019
  0
ARC
  8
0
  6
CONTINUOUS
 62
       179
  5
BD
 10
32.77815003
 20
4.9070833066
 30
0.0
 40
0.0727987331
 50
160.3720153669
 51
340.3720153888
  0
ARC
  8
0
  6
CONTINUOUS
 62
       179
  5
BE
 10
40.0747109904
 20
13.0197811783
 30
0.0
 40
10.1261414083
 50
226.6444845869
 51
241.69003902
  0
ARC
  8
0
  6
CONTINUOUS
 62
       179
  5
BF
 10
40.0747109904
 20
13.0197811783
 30
0.0
 40
11.7511415895
 50
109.6929536558
 51
241.9498888877
  0
ARC
  8
0
  6
CONTINUOUS
 62
       179
  5
C0
 10
44.1851242985
 20
22.2406116868
 30
0.0
 40
5.0915929259
 50
159.6871230711
 51
181.315681769
  0
ARC
  8
0
  6
CONTINUOUS
 62
       179
  5
C1
 10
43.3700662446
 20
12.9442992329
 30
0.0
 40
10.1261414084
 50
114.973159038
 51
125.5862362465
  0
ARC
  8
0
  6
CONTINUOUS
 62
       179
  5
C2
 10
36.1271829495
 20
20.9579342601
 30
0.0
 40
0.0312880726
 50
98.0000000311
 51
278.0
  0
ARC
  8
0
  6
CONTINUOUS
 62
       179
  5
C3
 10
43.3700662446
 20
12.9442992329
 30
0.0
 40
10.1261414084
 50
126.3413250447
 51
158.2992536016
  0
ARC
  8
0
  6
CONTINUOUS
 62
       179
  5
C4
 10
32.8271751919
 20
15.9282386984
 30
0.0
 40
0.0370336318
 50
122.2763134249
 51
302.2763135274
  0
ARC
  8
0
  6
CONTINUOUS
 62
       179
  5
C5
 10
43.3700662446
 20
12.9442992329
 30
0.0
 40
10.1261414084
 50
159.0058811663
 51
194.4417882712
  0
ARC
  8
0
  6
CONTINUOUS
 62
       179
  5
C6
 10
32.9836073779
 20
9.5618617574
 30
0.0
 40
0.0479458445
 50
143.2427804291
 51
323.2427804467
  0
ARC
  8
0
  6
CONTINUOUS
 62
       179
  5
C7
 10
43.3700662446
 20
12.9442992329
 30
0.0
 40
10.1261414083
 50
195.1346461501
 51
225.7414308019
  0
ARC
  8
0
  6
CONTINUOUS
 62
       179
  5
C8
 10
36.0735052841
 20
4.8316013613
 30
0.0
 40
0.0727987331
 50
160.372015441
 51
340.3720153888
  0
ARC
  8
0
  6
CONTINUOUS
 62
       179
  5
C9
 10
43.3700662446
 20
12.9442992329
 30
0.0
 40
10.1261414083
 50
226.6444845865
 51
241.69003902
  0
ARC
  8
0
  6
CONTINUOUS
 62
       179
  5
CA
 10
43.3700662446
 20
12.9442992329
 30
0.0
 40
11.7511415895
 50
109.6929536556
 51
241.9498888875
  0
ARC
  8
0
  6
CONTINUOUS
 62
       179
  5
CB
 10
47.4397640839
 20
22.1950663802
 30
0.0
 40
5.0915929259
 50
159.6871230723
 51
181.3156817715
  0
ARC
  8
0
  6
CONTINUOUS
 62
       179
  5
CC
 10
46.6247060299
 20
12.8987539262
 30
0.0
 40
10.1261414083
 50
114.9731590382
 51
125.5862362465
  0
ARC
  8
0
  6
CONTINUOUS
 62
       179
  5
CD
 10
39.3818227348
 20
20.9123889532
 30
0.0
 40
0.0312880726
 50
98.0000000311
 51
278.0
  0
ARC
  8
0
  6
CONTINUOUS
 62
       179
  5
CE
 10
46.6247060299
 20
12.8987539262
 30
0.0
 40
10.1261414083
 50
126.3413250454
 51
158.2992536016
  0
ARC
  8
0
  6
CONTINUOUS
 62
       179
  5
CF
 10
36.0818149773
 20
15.8826933916
 30
0.0
 40
0.0370336318
 50
122.2763135557
 51
302.2763135274
  0
ARC
  8
0
  6
CONTINUOUS
 62
       179
  5
D0
 10
46.6247060299
 20
12.8987539262
 30
0.0
 40
10.1261414082
 50
159.0058811668
 51
194.4417882712
  0
ARC
  8
0
  6
CONTINUOUS
 62
       179
  5
D1
 10
36.2382471634
 20
9.5163164507
 30
0.0
 40
0.0479458445
 50
143.2427805006
 51
323.2427804467
  0
ARC
  8
0
  6
CONTINUOUS
 62
       179
  5
D2
 10
46.6247060299
 20
12.8987539262
 30
0.0
 40
10.1261414083
 50
195.1346461505
 51
225.7414308019
  0
ARC
  8
0
  6
CONTINUOUS
 62
       179
  5
D3
 10
39.3281450695
 20
4.7860560545
 30
0.0
 40
0.0727987331
 50
160.3720153405
 51
340.3720153888
  0
ARC
  8
0
  6
CONTINUOUS
 62
       179
  5
D4
 10
46.6247060299
 20
12.8987539262
 30
0.0
 40
10.1261414083
 50
226.6444845869
 51
241.69003902
  0
ARC
  8
0
  6
CONTINUOUS
 62
       179
  5
D5
 10
46.6247060299
 20
12.8987539262
 30
0.0
 40
11.7511415896
 50
109.6929536558
 51
241.9498888873
  0
ARC
  8
0
  6
CONTINUOUS
 62
       179
  5
D6
 10
51.1305650394
 20
22.1659709398
 30
0.0
 40
5.0915929259
 50
159.6871230722
 51
181.3156817711
  0
ARC
  8
0
  6
CONTINUOUS
 62
       179
  5
D7
 10
50.3155069854
 20
12.8696584858
 30
0.0
 40
10.1261414084
 50
114.973159038
 51
125.5862362465
  0
ARC
  8
0
  6
CONTINUOUS
 62
       179
  5
D8
 10
43.0726236903
 20
20.8832935128
 30
0.0
 40
0.0312880726
 50
98.0000000056
 51
278.0
  0
ARC
  8
0
  6
CONTINUOUS
 62
       179
  5
D9
 10
50.3155069854
 20
12.8696584858
 30
0.0
 40
10.1261414084
 50
126.3413250451
 51
158.2992536016
  0
ARC
  8
0
  6
CONTINUOUS
 62
       179
  5
DA
 10
39.7726159327
 20
15.8535979513
 30
0.0
 40
0.0370336318
 50
122.2763134249
 51
302.2763135274
  0
ARC
  8
0
  6
CONTINUOUS
 62
       179
  5
DB
 10
50.3155069854
 20
12.8696584858
 30
0.0
 40
10.1261414084
 50
159.0058811668
 51
194.4417882712
  0
ARC
  8
0
  6
CONTINUOUS
 62
       179
  5
DC
 10
39.9290481187
 20
9.4872210103
 30
0.0
 40
0.0479458445
 50
143.2427804049
 51
323.2427804467
  0
ARC
  8
0
  6
CONTINUOUS
 62
       179
  5
DD
 10
50.3155069854
 20
12.8696584858
 30
0.0
 40
10.1261414083
 50
195.1346461501
 51
225.7414308019
  0
ARC
  8
0
  6
CONTINUOUS
 62
       179
  5
DE
 10
43.018946025
 20
4.7569606141
 30
0.0
 40
0.0727987331
 50
160.3720154146
 51
340.3720153888
  0
ARC
  8
0
  6
CONTINUOUS
 62
       179
  5
DF
 10
50.3155069854
 20
12.8696584858
 30
0.0
 40
10.1261414083
 50
226.6444845869
 51
241.69003902
  0
ARC
  8
0
  6
CONTINUOUS
 62
       179
  5
E0
 10
50.3155069854
 20
12.8696584858
 30
0.0
 40
11.7511415896
 50
109.6929536556
 51
241.9498888877
  0
ARC
  8
0
  6
CONTINUOUS
 62
       179
  5
E1
 10
27.569754259
 20
22.2129868744
 30
0.0
 40
5.0915929259
 50
159.6871230702
 51
181.3156817676
  0
ARC
  8
0
  6
CONTINUOUS
 62
       179
  5
E2
 10
26.7546962051
 20
12.9166744206
 30
0.0
 40
10.1261414085
 50
114.9731590382
 51
125.5862362465
  0
ARC
  8
0
  6
CONTINUOUS
 62
       179
  5
E3
 10
19.51181291
 20
20.9303094477
 30
0.0
 40
0.0312880726
 50
98.0000000311
 51
278.0
  0
ARC
  8
0
  6
CONTINUOUS
 62
       179
  5
E4
 10
26.7546962051
 20
12.9166744206
 30
0.0
 40
10.1261414084
 50
126.341325045
 51
158.2992536016
  0
ARC
  8
0
  6
CONTINUOUS
 62
       179
  5
E5
 10
16.2118051525
 20
15.900613886
 30
0.0
 40
0.0370336318
 50
122.2763134249
 51
302.2763135274
  0
ARC
  8
0
  6
CONTINUOUS
 62
       179
  5
E6
 10
26.7546962051
 20
12.9166744206
 30
0.0
 40
10.1261414083
 50
159.0058811668
 51
194.4417882712
  0
ARC
  8
0
  6
CONTINUOUS
 62
       179
  5
E7
 10
16.3682373385
 20
9.534236945
 30
0.0
 40
0.0479458445
 50
143.2427803334
 51
323.2427804467
  0
ARC
  8
0
  6
CONTINUOUS
 62
       179
  5
E8
 10
26.7546962051
 20
12.9166744206
 30
0.0
 40
10.1261414083
 50
195.1346461507
 51
225.7414308019
  0
ARC
  8
0
  6
CONTINUOUS
 62
       179
  5
E9
 10
19.4581352447
 20
4.8039765489
 30
0.0
 40
0.0727987331
 50
160.3720153669
 51
340.3720153888
  0
ARC
  8
0
  6
CONTINUOUS
 62
       179
  5
EA
 10
26.7546962051
 20
12.9166744206
 30
0.0
 40
10.1261414083
 50
226.6444845869
 51
241.69003902
  0
ARC
  8
0
  6
CONTINUOUS
 62
       179
  5
EB
 10
26.7546962051
 20
12.9166744206
 30
0.0
 40
11.7511415895
 50
109.6929536558
 51
241.9498888877
  0
ARC
  8
0
  6
CONTINUOUS
 62
       179
  5
EC
 10
30.9664409883
 20
22.2642269559
 30
0.0
 40
5.0915929259
 50
159.6871230722
 51
181.3156817711
  0
ARC
  8
0
  6
CONTINUOUS
 62
       179
  5
ED
 10
30.1513829343
 20
12.9679145019
 30
0.0
 40
10.1261414084
 50
114.973159038
 51
125.5862362465
  0
ARC
  8
0
  6
CONTINUOUS
 62
       179
  5
EE
 10
22.9084996392
 20
20.9815495289
 30
0.0
 40
0.0312880726
 50
98.0000000056
 51
278.0
  0
ARC
  8
0
  6
CONTINUOUS
 62
       179
  5
EF
 10
30.1513829343
 20
12.9679145019
 30
0.0
 40
10.1261414084
 50
126.3413250451
 51
158.2992536016
  0
ARC
  8
0
  6
CONTINUOUS
 62
       179
  5
F0
 10
19.6084918816
 20
15.9518539674
 30
0.0
 40
0.0370336318
 50
122.2763135557
 51
302.2763135274
  0
ARC
  8
0
  6
CONTINUOUS
 62
       179
  5
F1
 10
30.1513829343
 20
12.9679145019
 30
0.0
 40
10.1261414084
 50
159.0058811668
 51
194.4417882712
  0
ARC
  8
0
  6
CONTINUOUS
 62
       179
  5
F2
 10
19.7649240676
 20
9.5854770264
 30
0.0
 40
0.0479458445
 50
143.2427804049
 51
323.2427804467
  0
ARC
  8
0
  6
CONTINUOUS
 62
       179
  5
F3
 10
30.1513829343
 20
12.9679145019
 30
0.0
 40
10.1261414083
 50
195.1346461501
 51
225.7414308019
  0
ARC
  8
0
  6
CONTINUOUS
 62
       179
  5
F4
 10
22.8548219739
 20
4.8552166302
 30
0.0
 40
0.0727987331
 50
160.3720154146
 51
340.3720153888
  0
ARC
  8
0
  6
CONTINUOUS
 62
       179
  5
F5
 10
30.1513829343
 20
12.9679145019
 30
0.0
 40
10.1261414083
 50
226.6444845869
 51
241.69003902
  0
ARC
  8
0
  6
CONTINUOUS
 62
       179
  5
F6
 10
30.1513829343
 20
12.9679145019
 30
0.0
 40
11.7511415896
 50
109.6929536556
 51
241.9498888877
  0
ARC
  8
0
  6
CONTINUOUS
 62
       179
  5
F7
 10
24.2810647506
 20
22.2544077175
 30
0.0
 40
5.0915929259
 50
159.6871230686
 51
181.3156817649
  0
ARC
  8
0
  6
CONTINUOUS
 62
       179
  5
F8
 10
23.4660066968
 20
12.9580952638
 30
0.0
 40
10.1261414086
 50
114.9731590382
 51
125.5862362465
  0
ARC
  8
0
  6
CONTINUOUS
 62
       179
  5
F9
 10
16.2231234016
 20
20.971730291
 30
0.0
 40
0.0312880726
 50
98.0000000311
 51
278.0
  0
ARC
  8
0
  6
CONTINUOUS
 62
       179
  5
FA
 10
23.4660066968
 20
12.9580952638
 30
0.0
 40
10.1261414085
 50
126.341325045
 51
158.2992536016
  0
ARC
  8
0
  6
CONTINUOUS
 62
       179
  5
FB
 10
12.923115644
 20
15.9420347293
 30
0.0
 40
0.0370336318
 50
122.2763134249
 51
302.2763135274
  0
ARC
  8
0
  6
CONTINUOUS
 62
       179
  5
FC
 10
23.4660066968
 20
12.9580952638
 30
0.0
 40
10.1261414084
 50
159.0058811666
 51
194.4417882712
  0
ARC
  8
0
  6
CONTINUOUS
 62
       179
  5
FD
 10
13.0795478302
 20
9.5756577883
 30
0.0
 40
0.0479458445
 50
143.2427804049
 51
323.2427804467
  0
ARC
  8
0
  6
CONTINUOUS
 62
       179
  5
FE
 10
23.4660066968
 20
12.9580952638
 30
0.0
 40
10.1261414083
 50
195.1346461507
 51
225.7414308019
  0
ARC
  8
0
  6
CONTINUOUS
 62
       179
  5
FF
 10
16.1694457363
 20
4.8453973921
 30
0.0
 40
0.0727987331
 50
160.3720153669
 51
340.3720153888
  0
ARC
  8
0
  6
CONTINUOUS
 62
       179
  5
100
 10
23.4660066968
 20
12.9580952638
 30
0.0
 40
10.1261414083
 50
226.6444845873
 51
241.69003902
  0
ARC
  8
0
  6
CONTINUOUS
 62
       179
  5
101
 10
23.4660066968
 20
12.9580952638
 30
0.0
 40
11.7511415895
 50
109.6929536558
 51
241.9498888877
  0
ARC
  8
0
  6
CONTINUOUS
 62
       179
  5
102
 10
34.1676379615
 20
22.2745251182
 30
0.0
 40
5.0915929259
 50
159.6871230723
 51
181.3156817715
  0
ARC
  8
0
  6
CONTINUOUS
 62
       179
  5
103
 10
33.3525799075
 20
12.9782126642
 30
0.0
 40
10.1261414083
 50
114.9731590382
 51
125.5862362465
  0
ARC
  8
0
  6
CONTINUOUS
 62
       179
  5
104
 10
26.1096966124
 20
20.9918476912
 30
0.0
 40
0.0312880726
 50
98.0000000311
 51
278.0
  0
ARC
  8
0
  6
CONTINUOUS
 62
       179
  5
105
 10
33.3525799075
 20
12.9782126642
 30
0.0
 40
10.1261414083
 50
126.3413250454
 51
158.2992536016
  0
ARC
  8
0
  6
CONTINUOUS
 62
       179
  5
106
 10
22.8096888549
 20
15.9621521296
 30
0.0
 40
0.0370336318
 50
122.2763135557
 51
302.2763135274
  0
ARC
  8
0
  6
CONTINUOUS
 62
       179
  5
107
 10
33.3525799075
 20
12.9782126642
 30
0.0
 40
10.1261414082
 50
159.0058811668
 51
194.4417882712
  0
ARC
  8
0
  6
CONTINUOUS
 62
       179
  5
108
 10
22.966121041
 20
9.5957751887
 30
0.0
 40
0.0479458445
 50
143.2427804049
 51
323.2427804467
  0
ARC
  8
0
  6
CONTINUOUS
 62
       179
  5
109
 10
33.3525799075
 20
12.9782126642
 30
0.0
 40
10.1261414083
 50
195.1346461505
 51
225.7414308019
  0
ARC
  8
0
  6
CONTINUOUS
 62
       179
  5
10A
 10
26.0560189471
 20
4.8655147925
 30
0.0
 40
0.0727987331
 50
160.3720153405
 51
340.3720153888
  0
ARC
  8
0
  6
CONTINUOUS
 62
       179
  5
10B
 10
33.3525799075
 20
12.9782126642
 30
0.0
 40
10.1261414083
 50
226.6444845869
 51
241.69003902
  0
ARC
  8
0
  6
CONTINUOUS
 62
       179
  5
10C
 10
33.3525799075
 20
12.9782126642
 30
0.0
 40
11.7511415896
 50
109.6929536558
 51
241.9498888873
  0
ARC
  8
0
  6
CONTINUOUS
 62
       179
  5
10D
 10
21.0066394858
 20
22.2187835316
 30
0.0
 40
5.0915929259
 50
159.6871230711
 51
181.315681769
  0
ARC
  8
0
  6
CONTINUOUS
 62
       179
  5
10E
 10
20.1915814319
 20
12.9224710777
 30
0.0
 40
10.1261414084
 50
114.973159038
 51
125.5862362465
  0
ARC
  8
0
  6
CONTINUOUS
 62
       179
  5
10F
 10
12.9486981367
 20
20.9361061048
 30
0.0
 40
0.0312880726
 50
97.9999998243
 51
278.0
  0
ARC
  8
0
  6
CONTINUOUS
 62
       179
  5
110
 10
20.1915814319
 20
12.9224710777
 30
0.0
 40
10.1261414084
 50
126.3413250447
 51
158.2992536016
  0
ARC
  8
0
  6
CONTINUOUS
 62
       179
  5
111
 10
9.6486903792
 20
15.9064105432
 30
0.0
 40
0.0370336318
 50
122.2763134249
 51
302.2763135274
  0
ARC
  8
0
  6
CONTINUOUS
 62
       179
  5
112
 10
20.1915814319
 20
12.9224710777
 30
0.0
 40
10.1261414084
 50
159.0058811663
 51
194.4417882712
  0
ARC
  8
0
  6
CONTINUOUS
 62
       179
  5
113
 10
9.8051225652
 20
9.5400336023
 30
0.0
 40
0.0479458445
 50
143.2427805006
 51
323.2427804467
  0
ARC
  8
0
  6
CONTINUOUS
 62
       179
  5
114
 10
20.1915814319
 20
12.9224710777
 30
0.0
 40
10.1261414083
 50
195.1346461501
 51
225.7414308019
  0
ARC
  8
0
  6
CONTINUOUS
 62
       179
  5
115
 10
12.8950204714
 20
4.8097732061
 30
0.0
 40
0.0727987331
 50
160.3720154411
 51
340.3720153888
  0
ARC
  8
0
  6
CONTINUOUS
 62
       179
  5
116
 10
20.1915814319
 20
12.9224710777
 30
0.0
 40
10.1261414083
 50
226.6444845865
 51
241.69003902
  0
ARC
  8
0
  6
CONTINUOUS
 62
       179
  5
117
 10
20.1915814319
 20
12.9224710777
 30
0.0
 40
11.7511415895
 50
109.6929536556
 51
241.9498888875
  0
ARC
  8
0
  6
CONTINUOUS
 62
       179
  5
118
 10
17.7179499774
 20
22.2602043747
 30
0.0
 40
5.0915929259
 50
159.6871230699
 51
181.315681767
  0
ARC
  8
0
  6
CONTINUOUS
 62
       179
  5
119
 10
16.9028919235
 20
12.9638919209
 30
0.0
 40
10.1261414085
 50
114.973159038
 51
125.5862362465
  0
ARC
  8
0
  6
CONTINUOUS
 62
       179
  5
11A
 10
9.6600086283
 20
20.9775269481
 30
0.0
 40
0.0312880726
 50
98.0000000056
 51
278.0
  0
ARC
  8
0
  6
CONTINUOUS
 62
       179
  5
11B
 10
16.9028919235
 20
12.9638919209
 30
0.0
 40
10.1261414085
 50
126.3413250447
 51
158.2992536016
  0
ARC
  8
0
  6
CONTINUOUS
 62
       179
  5
11C
 10
6.3600008707
 20
15.9478313865
 30
0.0
 40
0.0370336318
 50
122.2763134249
 51
302.2763135274
  0
ARC
  8
0
  6
CONTINUOUS
 62
       179
  5
11D
 10
16.9028919235
 20
12.9638919209
 30
0.0
 40
10.1261414084
 50
159.0058811661
 51
194.4417882712
  0
ARC
  8
0
  6
CONTINUOUS
 62
       179
  5
11E
 10
6.5164330569
 20
9.5814544455
 30
0.0
 40
0.0479458445
 50
143.2427805006
 51
323.2427804467
  0
ARC
  8
0
  6
CONTINUOUS
 62
       179
  5
11F
 10
16.9028919235
 20
12.9638919209
 30
0.0
 40
10.1261414083
 50
195.1346461501
 51
225.7414308019
  0
ARC
  8
0
  6
CONTINUOUS
 62
       179
  5
120
 10
9.606330963
 20
4.8511940493
 30
0.0
 40
0.0727987331
 50
160.3720154411
 51
340.3720153888
  0
ARC
  8
0
  6
CONTINUOUS
 62
       179
  5
121
 10
16.9028919235
 20
12.9638919209
 30
0.0
 40
10.1261414083
 50
226.6444845865
 51
241.69003902
  0
ARC
  8
0
  6
CONTINUOUS
 62
       179
  5
122
 10
16.9028919235
 20
12.9638919209
 30
0.0
 40
11.7511415895
 50
109.6929536556
 51
241.9498888875
  0
ARC
  8
0
  6
CONTINUOUS
 62
       179
  5
123
 10
14.2109969463
 20
22.3163589798
 30
0.0
 40
5.0915929259
 50
159.68712307
 51
181.3156817671
  0
ARC
  8
0
  6
CONTINUOUS
 62
       179
  5
124
 10
13.3959388924
 20
13.020046526
 30
0.0
 40
10.1261414085
 50
114.973159038
 51
125.5862362465
  0
ARC
  8
0
  6
CONTINUOUS
 62
       179
  5
125
 10
6.1530555972
 20
21.0336815532
 30
0.0
 40
0.0312880726
 50
98.0000000056
 51
278.0
  0
ARC
  8
0
  6
CONTINUOUS
 62
       179
  5
126
 10
13.3959388924
 20
13.020046526
 30
0.0
 40
10.1261414085
 50
126.3413250447
 51
158.2992536016
  0
ARC
  8
0
  6
CONTINUOUS
 62
       179
  5
127
 10
2.8530478396
 20
16.0039859916
 30
0.0
 40
0.0370336318
 50
122.2763135557
 51
302.2763135274
  0
ARC
  8
0
  6
CONTINUOUS
 62
       179
  5
128
 10
13.3959388924
 20
13.020046526
 30
0.0
 40
10.1261414084
 50
159.0058811666
 51
194.4417882712
  0
ARC
  8
0
  6
CONTINUOUS
 62
       179
  5
129
 10
3.0094800257
 20
9.6376090505
 30
0.0
 40
0.0479458445
 50
143.2427804049
 51
323.2427804467
  0
ARC
  8
0
  6
CONTINUOUS
 62
       179
  5
12A
 10
13.3959388924
 20
13.020046526
 30
0.0
 40
10.1261414083
 50
195.1346461501
 51
225.7414308019
  0
ARC
  8
0
  6
CONTINUOUS
 62
       179
  5
12B
 10
6.0993779319
 20
4.9073486544
 30
0.0
 40
0.0727987331
 50
160.3720154411
 51
340.3720153888
  0
ARC
  8
0
  6
CONTINUOUS
 62
       179
  5
12C
 10
13.3959388924
 20
13.020046526
 30
0.0
 40
10.1261414083
 50
226.6444845873
 51
241.69003902
  0
ARC
  8
0
  6
CONTINUOUS
 62
       179
  5
12D
 10
13.3959388924
 20
13.020046526
 30
0.0
 40
11.7511415896
 50
109.6929536556
 51
241.9498888877
  0
ENDSEC
  0
EOF
