  0
SECTION
  2
HEADER
  9
$ACADVER
  1
AC1009
  9
$DWGCODEPAGE
  3
ansi_1252
  9
$INSBASE
 10
0.0
 20
0.0
 30
0.0
  9
$EXTMIN
 10
0.0
 20
0.0
 30
0.0
  9
$EXTMAX
 10
72.0
 20
48.0
 30
0.0
  9
$LIMMIN
 10
0.0
 20
0.0
  9
$LIMMAX
 10
0.0
 20
0.0
  9
$ORTHOMODE
 70
         0
  9
$REGENMODE
 70
         1
  9
$FILLMODE
 70
         1
  9
$QTEXTMODE
 70
         0
  9
$MIRRTEXT
 70
         1
  9
$DRAGMODE
 70
         2
  9
$LTSCALE
 40
1.0
  9
$OSMODE
 70
         0
  9
$ATTMODE
 70
         1
  9
$TEXTSIZE
 40
0.1377952756
  9
$TRACEWID
 40
0.05
  9
$TEXTSTYLE
  7
STANDARD
  9
$CLAYER
  8
0
  9
$CELTYPE
  6
CONTINUOUS
  9
$CECOLOR
 62
       256
  9
$DIMSCALE
 40
1.0
  9
$DIMASZ
 40
0.0
  9
$DIMEXO
 40
0.0
  9
$DIMDLI
 40
0.38
  9
$DIMRND
 40
0.0
  9
$DIMDLE
 40
0.0
  9
$DIMEXE
 40
0.18
  9
$DIMTP
 40
0.0
  9
$DIMTM
 40
0.0
  9
$DIMTXT
 40
0.1377952756
  9
$DIMCEN
 40
0.09
  9
$DIMTSZ
 40
0.0
  9
$DIMTOL
 70
         0
  9
$DIMLIM
 70
         0
  9
$DIMTIH
 70
         1
  9
$DIMTOH
 70
         1
  9
$DIMSE1
 70
         0
  9
$DIMSE2
 70
         0
  9
$DIMTAD
 70
         1
  9
$DIMZIN
 70
         0
  9
$DIMBLK
  1

  9
$DIMASO
 70
         1
  9
$DIMSHO
 70
         1
  9
$DIMPOST
  1

  9
$DIMAPOST
  1

  9
$DIMALT
 70
         0
  9
$DIMALTD
 70
         2
  9
$DIMALTF
 40
25.4
  9
$DIMLFAC
 40
1.0
  9
$DIMTOFL
 70
         0
  9
$DIMTVP
 40
0.0
  9
$DIMTIX
 70
         0
  9
$DIMSOXD
 70
         0
  9
$DIMSAH
 70
         0
  9
$DIMBLK1
  1

  9
$DIMBLK2
  1

  9
$DIMSTYLE
  2
STANDARD
  9
$DIMCLRD
 70
         0
  9
$DIMCLRE
 70
         0
  9
$DIMCLRT
 70
         0
  9
$DIMTFAC
 40
1.0
  9
$DIMGAP
 40
0.0
  9
$LUNITS
 70
         2
  9
$LUPREC
 70
         2
  9
$AXISMODE
 70
         0
  9
$AXISUNIT
 10
0.0
 20
0.0
  9
$SKETCHINC
 40
0.1
  9
$FILLETRAD
 40
0.0
  9
$AUNITS
 70
         0
  9
$AUPREC
 70
         2
  9
$MENU
  1
acad
  9
$ELEVATION
 40
0.0
  9
$PELEVATION
 40
0.0
  9
$THICKNESS
 40
0.0
  9
$LIMCHECK
 70
         0
  9
$BLIPMODE
 70
         1
  9
$CHAMFERA
 40
0.0
  9
$CHAMFERB
 40
0.0
  9
$SKPOLY
 70
         0
  9
$TDCREATE
 40
0.000000000
  9
$TDUPDATE
 40
0.000000000
  9
$TDINDWG
 40
0.0000000000
  9
$TDUSRTIMER
 40
0.0000000000
  9
$USRTIMER
 70
         1
  9
$ANGBASE
 50
0.0
  9
$ANGDIR
 70
         0
  9
$PDMODE
 70
         0
  9
$PDSIZE
 40
-1.0
  9
$PLINEWID
 40
0.0
  9
$COORDS
 70
         0
  9
$SPLFRAME
 70
         0
  9
$SPLINETYPE
 70
         6
  9
$SPLINESEGS
 70
         8
  9
$ATTDIA
 70
         0
  9
$ATTREQ
 70
         1
  9
$HANDLING
 70
         1
  9
$HANDSEED
  5
148
  9
$SURFTAB1
 70
         6
  9
$SURFTAB2
 70
         6
  9
$SURFTYPE
 70
         6
  9
$SURFU
 70
         6
  9
$SURFV
 70
         6
  9
$UCSNAME
  2

  9
$UCSORG
 10
0.0
 20
0.0
 30
0.0
  9
$UCSXDIR
 10
1.0
 20
0.0
 30
0.0
  9
$UCSYDIR
 10
0.0
 20
1.0
 30
0.0
  9
$PUCSNAME
  2

  9
$PUCSORG
 10
0.0
 20
0.0
 30
0.0
  9
$PUCSXDIR
 10
1.0
 20
0.0
 30
0.0
  9
$PUCSYDIR
 10
0.0
 20
1.0
 30
0.0
  9
$USERI1
 70
         0
  9
$USERI2
 70
         0
  9
$USERI3
 70
         0
  9
$USERI4
 70
         0
  9
$USERI5
 70
         0
  9
$USERR1
 40
0.0
  9
$USERR2
 40
0.0
  9
$USERR3
 40
0.0
  9
$USERR4
 40
0.0
  9
$USERR5
 40
0.0
  9
$WORLDVIEW
 70
         1
  9
$SHADEDGE
 70
         3
  9
$SHADEDIF
 70
        70
  9
$TILEMODE
 70
         1
  9
$MAXACTVP
 70
        16
  9
$PINSBASE
 10
0.0
 20
0.0
 30
0.0
  9
$PLIMCHECK
 70
         0
  9
$PEXTMIN
 10
1.0000000000E+20
 20
1.0000000000E+20
 30
1.0000000000E+20
  9
$PEXTMAX
 10
-1.0000000000E+20
 20
-1.0000000000E+20
 30
-1.0000000000E+20
  9
$PLIMMIN
 10
0.0
 20
0.0
  9
$PLIMMAX
 10
12.0
 20
9.0
  9
$UNITMODE
 70
         0
  9
$VISRETAIN
 70
         0
  9
$PLINEGEN
 70
         1
  9
$PSLTSCALE
 70
         1
  9
$TREEDEPTH
 70
      3020
  0
ENDSEC
  0
SECTION
  2
TABLES
  0
TABLE
  2
VPORT
 70
         1
  0
VPORT
  2
*ACTIVE
 70
         0
 10
0.0
 20
0.0
 11
1.0
 21
1.0
 12
36.0
 22
24.0
 13
0.0
 23
0.0
 14
1.0
 24
1.0
 15
0.0
 25
0.0
 16
0.0
 26
0.0
 36
1.0
 17
0.0
 27
0.0
 37
0.0
 40
48.0
 41
0.6666666667
 42
50.0
 43
0.0
 44
0.0
 50
0.0
 51
0.0
 71
         0
 72
      2000
 73
         1
 74
         1
 75
         0
 76
         0
 77
         0
 78
         0
  0
ENDTAB
  0
TABLE
  2
LTYPE
 70
         6
  0
LTYPE
  2
CONTINUOUS
 70
        64
  3
Solid line
 72
        65
 73
         0
 40
0.0
  0
LTYPE
  2
HIDDEN
 70
        64
  3
Hidden __ __ __ __ __ __ __ __ __ __ __ __ __ __
 72
        65
 73
         2
 40
0.075
 49
0.05
 49
-0.025
  0
LTYPE
  2
PHANTOM
 70
        64
  3
Phantom ______  __  __  ______  __  __  ______
 72
        65
 73
         6
 40
0.5
 49
0.25
 49
-0.05
 49
0.05
 49
-0.05
 49
0.05
 49
-0.05
  0
LTYPE
  2
CENTER
 70
        64
  3
Center ____ _ ____ _ ____ _ ____ _ ____ _ ____
 72
        65
 73
         4
 40
0.4
 49
0.25
 49
-0.05
 49
0.05
 49
-0.05
  0
LTYPE
  2
CENTERX2
 70
        64
  3
Center (2x) ________  __  ________  __  _____
 72
        65
 73
         4
 40
0.8
 49
0.5
 49
-0.1
 49
0.1
 49
-0.1
  0
LTYPE
  2
DOT2
 70
        64
  3
Dot (.5x) ........................................
 72
        65
 73
         2
 40
0.025
 49
0.0
 49
-0.025
  0
ENDTAB
  0
TABLE
  2
LAYER
 70
         2
  0
LAYER
  2
0
 70
         0
 62
         7
  6
CONTINUOUS
  0
LAYER
  2
DEFPOINTS
 70
         0
 62
         7
  6
CONTINUOUS
  0
ENDTAB
  0
TABLE
  2
STYLE
 70
         1
  0
STYLE
  2
STANDARD
 70
         0
 40
0.0
 41
1.0
 50
0.0
 71
         0
 42
0.0
  3
txt
  4

  0
ENDTAB
  0
TABLE
  2
VIEW
 70
         0
  0
ENDTAB
  0
TABLE
  2
UCS
 70
         0
  0
ENDTAB
  0
TABLE
  2
APPID
 70
         1
  0
APPID
  2
ACAD
 70
         0
  0
ENDTAB
  0
TABLE
  2
DIMSTYLE
 70
         1
  0
DIMSTYLE
  2
STANDARD
 70
         0
  3

  4

  5

  6

  7

 40
1.0
 41
0.18
 42
0.0625
 43
0.38
 44
0.18
 45
0.0
 46
0.0
 47
0.0
 48
0.0
 71
         0
 72
         0
 73
         1
 74
         1
 75
         0
 76
         0
 77
         0
 78
         0
140
0.18
141
0.09
142
0.0
143
25.4
144
1.0
145
0.0
146
1.0
147
0.09
170
         0
171
         2
172
         0
173
         0
174
         0
175
         0
176
         0
177
         0
178
         0
  0
ENDTAB
  0
ENDSEC
  0
SECTION
  2
BLOCKS
  0
ENDSEC
  0
SECTION
  2
ENTITIES
  0
LINE
  8
0
  6
CONTINUOUS
 62
       179
  5
26
 10
8.2031577151
 20
35.2156617477
 30
0.0
 11
9.0598515013
 21
34.515057235
 31
0.0
  0
LINE
  8
0
  6
CONTINUOUS
 62
       179
  5
27
 10
9.1067405905
 20
34.572392851
 30
0.0
 11
8.1948112285
 21
35.3181690392
 31
0.0
  0
LINE
  8
0
  6
CONTINUOUS
 62
       179
  5
28
 10
9.9728048606
 20
40.8197869235
 30
0.0
 11
9.4936898111
 21
41.657819273
 31
0.0
  0
LINE
  8
0
  6
CONTINUOUS
 62
       179
  5
29
 10
9.5467279344
 20
41.7582520131
 30
0.0
 11
10.056051915
 21
40.867380452
 31
0.0
  0
LINE
  8
0
  6
CONTINUOUS
 62
       179
  5
2A
 10
13.3954646225
 20
45.9998225361
 30
0.0
 11
13.5867306532
 21
45.1461063613
 31
0.0
  0
LINE
  8
0
  6
CONTINUOUS
 62
       179
  5
2B
 10
13.7288061311
 20
45.1779368613
 30
0.0
 11
13.5255328943
 21
46.0852472159
 31
0.0
  0
LINE
  8
0
  6
CONTINUOUS
 62
       179
  5
2C
 10
15.6904269306
 20
47.187515718
 30
0.0
 11
18.1928769598
 21
46.5169866606
 31
0.0
  0
LINE
  8
0
  6
CONTINUOUS
 62
       179
  5
2D
 10
18.1928769598
 20
46.5169866606
 30
0.0
 11
18.1827122899
 21
46.1980865847
 31
0.0
  0
LINE
  8
0
  6
CONTINUOUS
 62
       179
  5
2E
 10
14.501902029
 20
27.1137380585
 30
0.0
 11
12.8321724348
 21
26.8410180865
 31
0.0
  0
LINE
  8
0
  6
CONTINUOUS
 62
       179
  5
2F
 10
10.2634496896
 20
29.5116762851
 30
0.0
 11
11.7370272026
 21
29.1168323805
 31
0.0
  0
LINE
  8
0
  6
CONTINUOUS
 62
       179
  5
30
 10
11.7544534982
 20
29.181868201
 30
0.0
 11
10.2045646488
 21
29.5971596665
 31
0.0
  0
LINE
  8
0
  6
CONTINUOUS
 62
       179
  5
31
 10
47.0243703249
 20
28.7914206602
 30
0.0
 11
47.1491997998
 21
28.7979626958
 31
0.0
  0
LINE
  8
0
  6
CONTINUOUS
 62
       179
  5
32
 10
46.9066148094
 20
31.0383372592
 30
0.0
 11
47.0243703249
 21
28.7914206602
 31
0.0
  0
LINE
  8
0
  6
CONTINUOUS
 62
       179
  5
33
 10
65.4019947418
 20
31.1481148309
 30
0.0
 11
65.4735834375
 21
29.7821211441
 31
0.0
  0
LINE
  8
0
  6
CONTINUOUS
 62
       179
  5
34
 10
65.4049244042
 20
29.8965529915
 30
0.0
 11
65.3395044589
 21
31.14483991
 31
0.0
  0
LINE
  8
0
  6
CONTINUOUS
 62
       179
  5
35
 10
60.6807239705
 20
34.8892663379
 30
0.0
 11
61.3063356182
 21
33.6759355125
 31
0.0
  0
LINE
  8
0
  6
CONTINUOUS
 62
       179
  5
36
 10
61.1944240399
 20
33.7313609837
 30
0.0
 11
60.6148924855
 21
34.8553226328
 31
0.0
  0
LINE
  8
0
  6
CONTINUOUS
 62
       179
  5
37
 10
55.0952024447
 20
34.6185501052
 30
0.0
 11
54.3239540759
 21
35.3070902098
 31
0.0
  0
LINE
  8
0
  6
CONTINUOUS
 62
       179
  5
38
 10
54.2600925442
 20
35.2355575542
 30
0.0
 11
54.9745338304
 21
34.5977325711
 31
0.0
  0
LINE
  8
0
  6
CONTINUOUS
 62
       179
  5
39
 10
49.3407976758
 20
32.6716297558
 30
0.0
 11
50.1475598793
 21
32.3017884357
 31
0.0
  0
LINE
  8
0
  6
CONTINUOUS
 62
       179
  5
3A
 10
50.0274622058
 20
32.1966769417
 30
0.0
 11
49.2801235957
 21
32.539276901
 31
0.0
  0
LINE
  8
0
  6
CONTINUOUS
 62
       179
  5
3B
 10
47.1491997998
 20
28.7979626958
 30
0.0
 11
48.2938131759
 21
30.1905437801
 31
0.0
  0
LINE
  8
0
  6
CONTINUOUS
 62
       179
  5
3C
 10
21.6466722539
 20
35.3129477382
 30
0.0
 11
21.1054748128
 21
34.3476103587
 31
0.0
  0
LINE
  8
0
  6
CONTINUOUS
 62
       179
  5
3D
 10
21.1700815769
 20
34.3113898454
 30
0.0
 11
21.7461728771
 21
35.3389676274
 31
0.0
  0
LINE
  8
0
  6
CONTINUOUS
 62
       179
  5
3E
 10
27.4729541474
 20
34.5433316341
 30
0.0
 11
28.2150574473
 21
35.1606906398
 31
0.0
  0
LINE
  8
0
  6
CONTINUOUS
 62
       179
  5
3F
 10
28.3231743784
 20
35.1258982989
 30
0.0
 11
27.5342803392
 21
34.469613871
 31
0.0
  0
LINE
  8
0
  6
CONTINUOUS
 62
       179
  5
40
 10
33.1686320265
 20
32.072173561
 30
0.0
 11
32.3610987163
 21
31.735567033
 31
0.0
  0
LINE
  8
0
  6
CONTINUOUS
 62
       179
  5
41
 10
32.4171167875
 20
31.6011773093
 30
0.0
 11
33.2753450319
 21
31.9589151585
 31
0.0
  0
LINE
  8
0
  6
CONTINUOUS
 62
       179
  5
42
 10
34.7367975029
 20
30.0183176438
 30
0.0
 11
34.5110011758
 21
27.4374493045
 31
0.0
  0
LINE
  8
0
  6
CONTINUOUS
 62
       179
  5
43
 10
34.5110011758
 20
27.4374493045
 30
0.0
 11
34.1951808322
 21
27.3920831332
 31
0.0
  0
LINE
  8
0
  6
CONTINUOUS
 62
       179
  5
44
 10
14.761600457
 20
27.7030111691
 30
0.0
 11
14.2030782129
 21
29.3000164928
 31
0.0
  0
LINE
  8
0
  6
CONTINUOUS
 62
       179
  5
45
 10
16.3871091187
 20
32.2934695613
 30
0.0
 11
16.2541478299
 21
30.7737150772
 31
0.0
  0
LINE
  8
0
  6
CONTINUOUS
 62
       179
  5
46
 10
16.3212216546
 20
30.7678468779
 30
0.0
 11
16.4610685353
 21
32.3663040393
 31
0.0
  0
LINE
  8
0
  6
CONTINUOUS
 62
       179
  5
47
 10
21.646672254
 20
38.8215064665
 30
0.0
 11
21.1054748129
 21
37.856169087
 31
0.0
  0
LINE
  8
0
  6
CONTINUOUS
 62
       179
  5
48
 10
21.1700815769
 20
37.8199485737
 30
0.0
 11
21.7461728772
 21
38.8475263557
 31
0.0
  0
LINE
  8
0
  6
CONTINUOUS
 62
       179
  5
49
 10
27.4729541475
 20
38.0518903626
 30
0.0
 11
28.2150574474
 21
38.6692493681
 31
0.0
  0
LINE
  8
0
  6
CONTINUOUS
 62
       179
  5
4A
 10
28.3231743784
 20
38.6344570271
 30
0.0
 11
27.5342803392
 21
37.9781725992
 31
0.0
  0
LINE
  8
0
  6
CONTINUOUS
 62
       179
  5
4B
 10
33.1686320265
 20
35.5807322892
 30
0.0
 11
32.3610987164
 21
35.2441257613
 31
0.0
  0
LINE
  8
0
  6
CONTINUOUS
 62
       179
  5
4C
 10
32.4171167874
 20
35.1097360375
 30
0.0
 11
33.2753450318
 21
35.4674738868
 31
0.0
  0
LINE
  8
0
  6
CONTINUOUS
 62
       179
  5
4D
 10
34.7367975029
 20
33.526876372
 30
0.0
 11
34.5110011758
 21
30.9460080328
 31
0.0
  0
LINE
  8
0
  6
CONTINUOUS
 62
       179
  5
4E
 10
34.5110011758
 20
30.9460080328
 30
0.0
 11
34.1951808322
 21
30.9006418615
 31
0.0
  0
LINE
  8
0
  6
CONTINUOUS
 62
       179
  5
4F
 10
14.761600457
 20
31.2115698973
 30
0.0
 11
14.2030782129
 21
32.8085752211
 31
0.0
  0
LINE
  8
0
  6
CONTINUOUS
 62
       179
  5
50
 10
16.3871091186
 20
35.8020282895
 30
0.0
 11
16.2541478299
 21
34.2822738055
 31
0.0
  0
LINE
  8
0
  6
CONTINUOUS
 62
       179
  5
51
 10
16.3212216546
 20
34.2764056063
 30
0.0
 11
16.4610685353
 21
35.8748627676
 31
0.0
  0
LINE
  8
0
  6
CONTINUOUS
 62
       179
  5
52
 10
21.646672254
 20
42.5147261804
 30
0.0
 11
21.1054748129
 21
41.5493888009
 31
0.0
  0
LINE
  8
0
  6
CONTINUOUS
 62
       179
  5
53
 10
21.1700815769
 20
41.5131682875
 30
0.0
 11
21.7461728772
 21
42.5407460695
 31
0.0
  0
LINE
  8
0
  6
CONTINUOUS
 62
       179
  5
54
 10
27.4729541474
 20
41.7451100763
 30
0.0
 11
28.2150574473
 21
42.3624690819
 31
0.0
  0
LINE
  8
0
  6
CONTINUOUS
 62
       179
  5
55
 10
28.3231743784
 20
42.3276767411
 30
0.0
 11
27.5342803392
 21
41.6713923132
 31
0.0
  0
LINE
  8
0
  6
CONTINUOUS
 62
       179
  5
56
 10
33.1686320265
 20
39.2739520032
 30
0.0
 11
32.3610987164
 21
38.9373454753
 31
0.0
  0
LINE
  8
0
  6
CONTINUOUS
 62
       179
  5
57
 10
32.4171167875
 20
38.8029557516
 30
0.0
 11
33.2753450319
 21
39.1606936007
 31
0.0
  0
LINE
  8
0
  6
CONTINUOUS
 62
       179
  5
58
 10
34.7367975029
 20
37.220096086
 30
0.0
 11
34.5110011758
 21
34.6392277467
 31
0.0
  0
LINE
  8
0
  6
CONTINUOUS
 62
       179
  5
59
 10
34.5110011758
 20
34.6392277467
 30
0.0
 11
34.1951808322
 21
34.5938615755
 31
0.0
  0
LINE
  8
0
  6
CONTINUOUS
 62
       179
  5
5A
 10
14.761600457
 20
34.9047896113
 30
0.0
 11
14.2030782129
 21
36.501794935
 31
0.0
  0
LINE
  8
0
  6
CONTINUOUS
 62
       179
  5
5B
 10
16.3871091187
 20
39.4952480035
 30
0.0
 11
16.2541478299
 21
37.9754935195
 31
0.0
  0
LINE
  8
0
  6
CONTINUOUS
 62
       179
  5
5C
 10
16.3212216546
 20
37.9696253202
 30
0.0
 11
16.4610685353
 21
39.5680824815
 31
0.0
  0
LINE
  8
0
  6
CONTINUOUS
 62
       179
  5
5D
 10
21.8313332397
 20
46.4849373729
 30
0.0
 11
21.2901357986
 21
45.5195999934
 31
0.0
  0
LINE
  8
0
  6
CONTINUOUS
 62
       179
  5
5E
 10
21.3547425626
 20
45.4833794801
 30
0.0
 11
21.9308338629
 21
46.510957262
 31
0.0
  0
LINE
  8
0
  6
CONTINUOUS
 62
       179
  5
5F
 10
27.6576151331
 20
45.7153212688
 30
0.0
 11
28.399718433
 21
46.3326802745
 31
0.0
  0
LINE
  8
0
  6
CONTINUOUS
 62
       179
  5
60
 10
28.5078353641
 20
46.2978879336
 30
0.0
 11
27.7189413249
 21
45.6416035057
 31
0.0
  0
LINE
  8
0
  6
CONTINUOUS
 62
       179
  5
61
 10
33.3532930122
 20
43.2441631957
 30
0.0
 11
32.5457597021
 21
42.9075566678
 31
0.0
  0
LINE
  8
0
  6
CONTINUOUS
 62
       179
  5
62
 10
32.6017777732
 20
42.7731669441
 30
0.0
 11
33.4600060176
 21
43.1309047932
 31
0.0
  0
LINE
  8
0
  6
CONTINUOUS
 62
       179
  5
63
 10
34.9214584886
 20
41.1903072785
 30
0.0
 11
34.6956621615
 21
38.6094389392
 31
0.0
  0
LINE
  8
0
  6
CONTINUOUS
 62
       179
  5
64
 10
34.6956621615
 20
38.6094389392
 30
0.0
 11
34.3798418179
 21
38.564072768
 31
0.0
  0
LINE
  8
0
  6
CONTINUOUS
 62
       179
  5
65
 10
14.9462614427
 20
38.8750008038
 30
0.0
 11
14.3877391986
 21
40.4720061275
 31
0.0
  0
LINE
  8
0
  6
CONTINUOUS
 62
       179
  5
66
 10
16.5717701044
 20
43.465459196
 30
0.0
 11
16.4388088156
 21
41.945704712
 31
0.0
  0
LINE
  8
0
  6
CONTINUOUS
 62
       179
  5
67
 10
16.5058826403
 20
41.9398365127
 30
0.0
 11
16.645729521
 21
43.5382936741
 31
0.0
  0
LINE
  8
0
  6
CONTINUOUS
 62
       179
  5
68
 10
47.3037695024
 20
32.2301534559
 30
0.0
 11
47.4285989773
 21
32.2366954915
 31
0.0
  0
LINE
  8
0
  6
CONTINUOUS
 62
       179
  5
69
 10
47.1860139869
 20
34.4770700549
 30
0.0
 11
47.3037695024
 21
32.2301534559
 31
0.0
  0
LINE
  8
0
  6
CONTINUOUS
 62
       179
  5
6A
 10
65.6813939194
 20
34.5868476267
 30
0.0
 11
65.752982615
 21
33.2208539398
 31
0.0
  0
LINE
  8
0
  6
CONTINUOUS
 62
       179
  5
6B
 10
65.6843235817
 20
33.3352857872
 30
0.0
 11
65.6189036364
 21
34.5835727057
 31
0.0
  0
LINE
  8
0
  6
CONTINUOUS
 62
       179
  5
6C
 10
60.9601231481
 20
38.3279991336
 30
0.0
 11
61.5857347957
 21
37.1146683082
 31
0.0
  0
LINE
  8
0
  6
CONTINUOUS
 62
       179
  5
6D
 10
61.4738232175
 20
37.1700937793
 30
0.0
 11
60.8942916631
 21
38.2940554285
 31
0.0
  0
LINE
  8
0
  6
CONTINUOUS
 62
       179
  5
6E
 10
55.3746016222
 20
38.0572829009
 30
0.0
 11
54.6033532534
 21
38.7458230055
 31
0.0
  0
LINE
  8
0
  6
CONTINUOUS
 62
       179
  5
6F
 10
54.5394917218
 20
38.6742903499
 30
0.0
 11
55.2539330079
 21
38.0364653668
 31
0.0
  0
LINE
  8
0
  6
CONTINUOUS
 62
       179
  5
70
 10
49.6201968533
 20
36.1103625515
 30
0.0
 11
50.4269590568
 21
35.7405212314
 31
0.0
  0
LINE
  8
0
  6
CONTINUOUS
 62
       179
  5
71
 10
50.3068613833
 20
35.6354097374
 30
0.0
 11
49.5595227733
 21
35.9780096967
 31
0.0
  0
LINE
  8
0
  6
CONTINUOUS
 62
       179
  5
72
 10
47.4285989773
 20
32.2366954915
 30
0.0
 11
48.5732123534
 21
33.6292765758
 31
0.0
  0
LINE
  8
0
  6
CONTINUOUS
 62
       179
  5
73
 10
47.4884304881
 20
35.7387121842
 30
0.0
 11
47.6132599631
 21
35.7452542196
 31
0.0
  0
LINE
  8
0
  6
CONTINUOUS
 62
       179
  5
74
 10
47.3706749726
 20
37.9856287832
 30
0.0
 11
47.4884304881
 21
35.7387121842
 31
0.0
  0
LINE
  8
0
  6
CONTINUOUS
 62
       179
  5
75
 10
65.8660549051
 20
38.0954063549
 30
0.0
 11
65.9376436008
 21
36.7294126681
 31
0.0
  0
LINE
  8
0
  6
CONTINUOUS
 62
       179
  5
76
 10
65.8689845674
 20
36.8438445155
 30
0.0
 11
65.8035646221
 21
38.0921314339
 31
0.0
  0
LINE
  8
0
  6
CONTINUOUS
 62
       179
  5
77
 10
61.1447841338
 20
41.8365578619
 30
0.0
 11
61.7703957815
 21
40.6232270365
 31
0.0
  0
LINE
  8
0
  6
CONTINUOUS
 62
       179
  5
78
 10
61.6584842033
 20
40.6786525076
 30
0.0
 11
61.0789526489
 21
41.8026141568
 31
0.0
  0
LINE
  8
0
  6
CONTINUOUS
 62
       179
  5
79
 10
55.5592626079
 20
41.5658416292
 30
0.0
 11
54.7880142391
 21
42.2543817337
 31
0.0
  0
LINE
  8
0
  6
CONTINUOUS
 62
       179
  5
7A
 10
54.7241527075
 20
42.1828490782
 30
0.0
 11
55.4385939936
 21
41.5450240951
 31
0.0
  0
LINE
  8
0
  6
CONTINUOUS
 62
       179
  5
7B
 10
49.804857839
 20
39.6189212797
 30
0.0
 11
50.6116200425
 21
39.2490799597
 31
0.0
  0
LINE
  8
0
  6
CONTINUOUS
 62
       179
  5
7C
 10
50.491522369
 20
39.1439684656
 30
0.0
 11
49.744183759
 21
39.486568425
 31
0.0
  0
LINE
  8
0
  6
CONTINUOUS
 62
       179
  5
7D
 10
47.6132599631
 20
35.7452542196
 30
0.0
 11
48.7578733392
 21
37.1378353041
 31
0.0
  0
LINE
  8
0
  6
CONTINUOUS
 62
       179
  5
7E
 10
47.580760981
 20
39.524262391
 30
0.0
 11
47.7055904559
 21
39.5308044266
 31
0.0
  0
LINE
  8
0
  6
CONTINUOUS
 62
       179
  5
7F
 10
47.4630054655
 20
41.77117899
 30
0.0
 11
47.580760981
 21
39.524262391
 31
0.0
  0
LINE
  8
0
  6
CONTINUOUS
 62
       179
  5
80
 10
65.9583853979
 20
41.8809565617
 30
0.0
 11
66.0299740936
 21
40.5149628749
 31
0.0
  0
LINE
  8
0
  6
CONTINUOUS
 62
       179
  5
81
 10
65.9613150603
 20
40.6293947223
 30
0.0
 11
65.895895115
 21
41.8776816407
 31
0.0
  0
LINE
  8
0
  6
CONTINUOUS
 62
       179
  5
82
 10
61.2371146266
 20
45.6221080687
 30
0.0
 11
61.8627262743
 21
44.4087772433
 31
0.0
  0
LINE
  8
0
  6
CONTINUOUS
 62
       179
  5
83
 10
61.750814696
 20
44.4642027145
 30
0.0
 11
61.1712831416
 21
45.5881643636
 31
0.0
  0
LINE
  8
0
  6
CONTINUOUS
 62
       179
  5
84
 10
55.6515931008
 20
45.351391836
 30
0.0
 11
54.880344732
 21
46.0399319405
 31
0.0
  0
LINE
  8
0
  6
CONTINUOUS
 62
       179
  5
85
 10
54.8164832003
 20
45.968399285
 30
0.0
 11
55.5309244865
 21
45.3305743019
 31
0.0
  0
LINE
  8
0
  6
CONTINUOUS
 62
       179
  5
86
 10
49.8971883319
 20
43.4044714866
 30
0.0
 11
50.7039505354
 21
43.0346301665
 31
0.0
  0
LINE
  8
0
  6
CONTINUOUS
 62
       179
  5
87
 10
50.5838528619
 20
42.9295186725
 30
0.0
 11
49.8365142518
 21
43.2721186318
 31
0.0
  0
LINE
  8
0
  6
CONTINUOUS
 62
       179
  5
88
 10
47.7055904559
 20
39.5308044266
 30
0.0
 11
48.850203832
 21
40.9233855109
 31
0.0
  0
LINE
  8
0
  6
CONTINUOUS
 62
       179
  5
89
 10
4.694736191
 20
35.201201114
 30
0.0
 11
5.5869227153
 21
34.546392644
 31
0.0
  0
LINE
  8
0
  6
CONTINUOUS
 62
       179
  5
8A
 10
5.6307468302
 20
34.6061036688
 30
0.0
 11
4.6810363258
 21
35.3031311015
 31
0.0
  0
LINE
  8
0
  6
CONTINUOUS
 62
       179
  5
8B
 10
6.1686608466
 20
40.8902622067
 30
0.0
 11
5.6463431832
 21
41.7020711177
 31
0.0
  0
LINE
  8
0
  6
CONTINUOUS
 62
       179
  5
8C
 10
5.6940523762
 20
41.8051420191
 30
0.0
 11
6.249302961
 21
40.9421473242
 31
0.0
  0
LINE
  8
0
  6
CONTINUOUS
 62
       179
  5
8D
 10
9.3155278551
 20
46.242326932
 30
0.0
 11
9.5512118147
 21
45.3997908362
 31
0.0
  0
LINE
  8
0
  6
CONTINUOUS
 62
       179
  5
8E
 10
9.6914267035
 20
45.4390133696
 30
0.0
 11
9.4409470906
 21
46.3344417876
 31
0.0
  0
LINE
  8
0
  6
CONTINUOUS
 62
       179
  5
8F
 10
11.5451859387
 20
47.5485014686
 30
0.0
 11
14.0792992266
 21
47.0098594632
 31
0.0
  0
LINE
  8
0
  6
CONTINUOUS
 62
       179
  5
90
 10
14.0792992266
 20
47.0098594632
 30
0.0
 11
14.0858384274
 21
46.6908644511
 31
0.0
  0
LINE
  8
0
  6
CONTINUOUS
 62
       179
  5
91
 10
11.4088702182
 20
27.4400316364
 30
0.0
 11
9.755701991
 21
27.0802985227
 31
0.0
  0
LINE
  8
0
  6
CONTINUOUS
 62
       179
  5
92
 10
7.0507281404
 20
29.6128601159
 30
0.0
 11
8.5429507001
 21
29.2956784194
 31
0.0
  0
LINE
  8
0
  6
CONTINUOUS
 62
       179
  5
93
 10
8.5569494017
 20
29.3615371324
 30
0.0
 11
6.9874499451
 21
29.6951445404
 31
0.0
  0
LINE
  8
0
  6
CONTINUOUS
 62
       179
  5
94
 10
0.7679288235
 20
34.9531289405
 30
0.0
 11
1.6824243379
 21
34.3298562227
 31
0.0
  0
LINE
  8
0
  6
CONTINUOUS
 62
       179
  5
95
 10
1.7241378717
 20
34.3910603128
 30
0.0
 11
0.7506799986
 21
35.0545187166
 31
0.0
  0
LINE
  8
0
  6
CONTINUOUS
 62
       179
  5
96
 10
2.0424102353
 20
40.6901636395
 30
0.0
 11
1.4920790313
 21
41.4832493948
 31
0.0
  0
LINE
  8
0
  6
CONTINUOUS
 62
       179
  5
97
 10
1.5361620385
 20
41.5879225352
 30
0.0
 11
2.1211924601
 21
40.7448315192
 31
0.0
  0
LINE
  8
0
  6
CONTINUOUS
 62
       179
  5
98
 10
5.0005758922
 20
46.1487921064
 30
0.0
 11
5.2655203652
 21
45.3149945123
 31
0.0
  0
LINE
  8
0
  6
CONTINUOUS
 62
       179
  5
99
 10
5.4042809922
 20
45.3590865815
 30
0.0
 11
5.1227039636
 21
46.2452279163
 31
0.0
  0
LINE
  8
0
  6
CONTINUOUS
 62
       179
  5
9A
 10
7.1832908944
 20
47.5319849017
 30
0.0
 11
9.7346588039
 21
47.0821103008
 31
0.0
  0
LINE
  8
0
  6
CONTINUOUS
 62
       179
  5
9B
 10
9.7346588039
 20
47.0821103008
 30
0.0
 11
9.7523267865
 21
46.7635378266
 31
0.0
  0
LINE
  8
0
  6
CONTINUOUS
 62
       179
  5
9C
 10
7.7488336905
 20
27.4310072559
 30
0.0
 11
6.1092270332
 21
27.0137985428
 31
0.0
  0
LINE
  8
0
  6
CONTINUOUS
 62
       179
  5
9D
 10
3.3175158545
 20
29.4504151419
 30
0.0
 11
4.8198988741
 21
29.1855044802
 31
0.0
  0
LINE
  8
0
  6
CONTINUOUS
 62
       179
  5
9E
 10
4.8315906121
 20
29.2518116215
 30
0.0
 11
3.2514045216
 21
29.5304410638
 31
0.0
  0
LINE
  8
0
  6
CONTINUOUS
 62
       179
  5
9F
 10
37.119011416
 20
34.5555136837
 30
0.0
 11
38.0335069304
 21
33.9322409659
 31
0.0
  0
LINE
  8
0
  6
CONTINUOUS
 62
       179
  5
A0
 10
38.0752204642
 20
33.993445056
 30
0.0
 11
37.1017625911
 21
34.6569034598
 31
0.0
  0
LINE
  8
0
  6
CONTINUOUS
 62
       179
  5
A1
 10
38.3934928277
 20
40.2925483828
 30
0.0
 11
37.8431616237
 21
41.0856341381
 31
0.0
  0
LINE
  8
0
  6
CONTINUOUS
 62
       179
  5
A2
 10
37.8872446309
 20
41.1903072785
 30
0.0
 11
38.4722750526
 21
40.3472162624
 31
0.0
  0
LINE
  8
0
  6
CONTINUOUS
 62
       179
  5
A3
 10
41.3516584846
 20
45.7511768496
 30
0.0
 11
41.6166029576
 21
44.9173792556
 31
0.0
  0
LINE
  8
0
  6
CONTINUOUS
 62
       179
  5
A4
 10
41.7553635846
 20
44.9614713248
 30
0.0
 11
41.473786556
 21
45.8476126596
 31
0.0
  0
LINE
  8
0
  6
CONTINUOUS
 62
       179
  5
A5
 10
43.5343734868
 20
47.134369645
 30
0.0
 11
46.0857413963
 21
46.6844950441
 31
0.0
  0
LINE
  8
0
  6
CONTINUOUS
 62
       179
  5
A6
 10
46.0857413963
 20
46.6844950441
 30
0.0
 11
46.1034093789
 21
46.3659225699
 31
0.0
  0
LINE
  8
0
  6
CONTINUOUS
 62
       179
  5
A7
 10
44.0999162829
 20
27.0333919992
 30
0.0
 11
42.4603096256
 21
26.616183286
 31
0.0
  0
LINE
  8
0
  6
CONTINUOUS
 62
       179
  5
A8
 10
39.6685984469
 20
29.0527998852
 30
0.0
 11
41.1709814666
 21
28.7878892235
 31
0.0
  0
LINE
  8
0
  6
CONTINUOUS
 62
       179
  5
A9
 10
41.1826732046
 20
28.8541963648
 30
0.0
 11
39.6024871141
 21
29.1328258071
 31
0.0
  0
ARC
  8
0
  6
CONTINUOUS
 62
       179
  5
AA
 10
9.0832960459
 20
34.543725043
 30
0.0
 40
0.0370336318
 50
230.7236864376
 51
50.7236864726
  0
ARC
  8
0
  6
CONTINUOUS
 62
       179
  5
AB
 10
19.9112527308
 20
36.220567466
 30
0.0
 40
11.7511414083
 50
152.4385360035
 51
173.9725106908
  0
ARC
  8
0
  6
CONTINUOUS
 62
       179
  5
AC
 10
10.0144283878
 20
40.8435836878
 30
0.0
 40
0.0479458445
 50
209.7572195547
 51
29.7572195533
  0
ARC
  8
0
  6
CONTINUOUS
 62
       179
  5
AD
 10
19.9112527308
 20
36.220567466
 30
0.0
 40
11.7511414083
 50
123.6749951142
 51
151.8847584028
  0
ARC
  8
0
  6
CONTINUOUS
 62
       179
  5
AE
 10
13.6577683921
 20
45.1620216113
 30
0.0
 40
0.0727987331
 50
192.627984612
 51
12.627984612
  0
ARC
  8
0
  6
CONTINUOUS
 62
       179
  5
AF
 10
19.9112527308
 20
36.220567466
 30
0.0
 40
11.7511414083
 50
111.0501111125
 51
122.9162617763
  0
ARC
  8
0
  6
CONTINUOUS
 62
       179
  5
B0
 10
19.9112527308
 20
36.220567466
 30
0.0
 40
10.1261414083
 50
99.8285675472
 51
173.0007441007
  0
ARC
  8
0
  6
CONTINUOUS
 62
       179
  5
B1
 10
20.0632538547
 20
26.8649977313
 30
0.0
 40
5.5669117004
 50
172.0952183782
 51
177.4390616931
  0
ARC
  8
0
  6
CONTINUOUS
 62
       179
  5
B2
 10
19.9112527308
 20
36.220567466
 30
0.0
 40
11.7511414083
 50
214.8139865811
 51
232.9568437605
  0
ARC
  8
0
  6
CONTINUOUS
 62
       179
  5
B3
 10
11.7457403504
 20
29.1493502908
 30
0.0
 40
0.0336650179
 50
254.9999999632
 51
74.9999999999
  0
ARC
  8
0
  6
CONTINUOUS
 62
       179
  5
B4
 10
19.9112527308
 20
36.220567466
 30
0.0
 40
11.7511414084
 50
184.9056736011
 51
214.3078709622
  0
ARC
  8
0
  6
CONTINUOUS
 62
       179
  5
B5
 10
65.9462503598
 20
23.0074061917
 30
0.0
 40
5.0915929259
 50
64.6871245502
 51
86.3156843885
  0
ARC
  8
0
  6
CONTINUOUS
 62
       179
  5
B6
 10
56.7563500527
 20
24.6295897766
 30
0.0
 40
10.1261412877
 50
19.9731590379
 51
30.5862362465
  0
ARC
  8
0
  6
CONTINUOUS
 62
       179
  5
B7
 10
65.3707496003
 20
31.1464773705
 30
0.0
 40
0.0312880191
 50
2.9999487646
 51
182.9999487651
  0
ARC
  8
0
  6
CONTINUOUS
 62
       179
  5
B8
 10
56.7563500527
 20
24.6295897766
 30
0.0
 40
10.1261414083
 50
31.3413250449
 51
63.2992536016
  0
ARC
  8
0
  6
CONTINUOUS
 62
       179
  5
B9
 10
60.647808228
 20
34.8722944853
 30
0.0
 40
0.0370336318
 50
27.2763134911
 51
207.2763134911
  0
ARC
  8
0
  6
CONTINUOUS
 62
       179
  5
BA
 10
56.7563500527
 20
24.6295897766
 30
0.0
 40
10.1261414084
 50
64.0058811667
 51
91.2658357872
  0
ARC
  8
0
  6
CONTINUOUS
 62
       179
  5
BB
 10
54.29202331
 20
35.271323882
 30
0.0
 40
0.0479458446
 50
48.2427804062
 51
228.2427804467
  0
ARC
  8
0
  6
CONTINUOUS
 62
       179
  5
BC
 10
56.7563500527
 20
24.6295897766
 30
0.0
 40
10.1261414083
 50
100.13464615
 51
130.7414308019
  0
ARC
  8
0
  6
CONTINUOUS
 62
       179
  5
BD
 10
49.3104606357
 20
32.6054533284
 30
0.0
 40
0.0727987331
 50
65.3720153454
 51
245.3720153887
  0
ARC
  8
0
  6
CONTINUOUS
 62
       179
  5
BE
 10
56.7563500527
 20
24.6295897766
 30
0.0
 40
10.1261414083
 50
131.6444845867
 51
146.69003902
  0
ARC
  8
0
  6
CONTINUOUS
 62
       179
  5
BF
 10
56.7563500527
 20
24.6295897766
 30
0.0
 40
11.7511415895
 50
14.6929536556
 51
91.0907675305
  0
ARC
  8
0
  6
CONTINUOUS
 62
       179
  5
C0
 10
21.1377781949
 20
34.329500102
 30
0.0
 40
0.0370336318
 50
150.7236864931
 51
330.7236864931
  0
ARC
  8
0
  6
CONTINUOUS
 62
       179
  5
C1
 10
24.6694005459
 20
23.9572250931
 30
0.0
 40
11.7511413539
 50
72.4385360035
 51
93.2065810644
  0
ARC
  8
0
  6
CONTINUOUS
 62
       179
  5
C2
 10
27.5036172433
 20
34.5064727526
 30
0.0
 40
0.0479458298
 50
129.7572469828
 51
309.7572469828
  0
ARC
  8
0
  6
CONTINUOUS
 62
       179
  5
C3
 10
24.6694005459
 20
23.9572250931
 30
0.0
 40
11.7511414083
 50
43.6749951142
 51
71.8847584024
  0
ARC
  8
0
  6
CONTINUOUS
 62
       179
  5
C4
 10
32.3891077519
 20
31.6683721712
 30
0.0
 40
0.0727987331
 50
112.6279846729
 51
292.6279846728
  0
ARC
  8
0
  6
CONTINUOUS
 62
       179
  5
C5
 10
24.6694005459
 20
23.9572250931
 30
0.0
 40
11.7511414084
 50
31.0501111124
 51
42.9162617762
  0
ARC
  8
0
  6
CONTINUOUS
 62
       179
  5
C6
 10
24.6694005459
 20
23.9572250931
 30
0.0
 40
10.1261414082
 50
19.8285675468
 51
93.7218341606
  0
ARC
  8
0
  6
CONTINUOUS
 62
       179
  5
C7
 10
15.4823587629
 20
22.1829556128
 30
0.0
 40
5.5669117004
 50
92.0952297833
 51
97.4390730974
  0
ARC
  8
0
  6
CONTINUOUS
 62
       179
  5
C8
 10
24.6694005459
 20
23.9572250931
 30
0.0
 40
11.7511413538
 50
134.8139865811
 51
152.9568441885
  0
ARC
  8
0
  6
CONTINUOUS
 62
       179
  5
C9
 10
16.2876847423
 20
30.7707809776
 30
0.0
 40
0.0336650179
 50
175.0000000609
 51
355.0
  0
ARC
  8
0
  6
CONTINUOUS
 62
       179
  5
CA
 10
24.6694005459
 20
23.9572250931
 30
0.0
 40
11.7511413538
 50
104.9056736015
 51
134.3078709605
  0
ARC
  8
0
  6
CONTINUOUS
 62
       179
  5
CB
 10
21.1377781949
 20
37.8380588303
 30
0.0
 40
0.0370336318
 50
150.7236864255
 51
330.7236864256
  0
ARC
  8
0
  6
CONTINUOUS
 62
       179
  5
CC
 10
24.6694005459
 20
27.4657838213
 30
0.0
 40
11.751141354
 50
72.4385360035
 51
93.2065810645
  0
ARC
  8
0
  6
CONTINUOUS
 62
       179
  5
CD
 10
27.5036172433
 20
38.0150314809
 30
0.0
 40
0.0479458299
 50
129.7572468772
 51
309.7572468772
  0
ARC
  8
0
  6
CONTINUOUS
 62
       179
  5
CE
 10
24.6694005459
 20
27.4657838213
 30
0.0
 40
11.7511414083
 50
43.6749951142
 51
71.8847584024
  0
ARC
  8
0
  6
CONTINUOUS
 62
       179
  5
CF
 10
32.3891077519
 20
35.1769308994
 30
0.0
 40
0.0727987331
 50
112.6279846416
 51
292.6279846416
  0
ARC
  8
0
  6
CONTINUOUS
 62
       179
  5
D0
 10
24.6694005459
 20
27.4657838213
 30
0.0
 40
11.7511414083
 50
31.0501111125
 51
42.9162617766
  0
ARC
  8
0
  6
CONTINUOUS
 62
       179
  5
D1
 10
24.6694005459
 20
27.4657838213
 30
0.0
 40
10.1261414083
 50
19.8285675473
 51
93.7218341607
  0
ARC
  8
0
  6
CONTINUOUS
 62
       179
  5
D2
 10
15.4823587629
 20
25.691514341
 30
0.0
 40
5.5669117004
 50
92.0952297833
 51
97.4390730974
  0
ARC
  8
0
  6
CONTINUOUS
 62
       179
  5
D3
 10
24.6694005459
 20
27.4657838213
 30
0.0
 40
11.7511413539
 50
134.8139865811
 51
152.9568441881
  0
ARC
  8
0
  6
CONTINUOUS
 62
       179
  5
D4
 10
16.2876847422
 20
34.2793397059
 30
0.0
 40
0.0336650179
 50
175.0000000609
 51
355.0
  0
ARC
  8
0
  6
CONTINUOUS
 62
       179
  5
D5
 10
24.6694005459
 20
27.4657838213
 30
0.0
 40
11.751141354
 50
104.9056736014
 51
134.3078709602
  0
ARC
  8
0
  6
CONTINUOUS
 62
       179
  5
D6
 10
21.1377781949
 20
41.5312785442
 30
0.0
 40
0.0370336318
 50
150.7236864254
 51
330.7236864256
  0
ARC
  8
0
  6
CONTINUOUS
 62
       179
  5
D7
 10
24.6694005459
 20
31.1590035353
 30
0.0
 40
11.7511413538
 50
72.4385360035
 51
93.2065810645
  0
ARC
  8
0
  6
CONTINUOUS
 62
       179
  5
D8
 10
27.5036172433
 20
41.7082511947
 30
0.0
 40
0.0479458298
 50
129.7572470229
 51
309.7572470229
  0
ARC
  8
0
  6
CONTINUOUS
 62
       179
  5
D9
 10
24.6694005459
 20
31.1590035353
 30
0.0
 40
11.7511414083
 50
43.6749951142
 51
71.8847584024
  0
ARC
  8
0
  6
CONTINUOUS
 62
       179
  5
DA
 10
32.3891077519
 20
38.8701506134
 30
0.0
 40
0.0727987331
 50
112.6279846667
 51
292.6279846667
  0
ARC
  8
0
  6
CONTINUOUS
 62
       179
  5
DB
 10
24.6694005459
 20
31.1590035353
 30
0.0
 40
11.7511414083
 50
31.0501111125
 51
42.9162617762
  0
ARC
  8
0
  6
CONTINUOUS
 62
       179
  5
DC
 10
24.6694005459
 20
31.1590035353
 30
0.0
 40
10.1261414083
 50
19.8285675473
 51
93.7218341607
  0
ARC
  8
0
  6
CONTINUOUS
 62
       179
  5
DD
 10
15.4823587629
 20
29.384734055
 30
0.0
 40
5.5669117004
 50
92.0952297833
 51
97.4390730974
  0
ARC
  8
0
  6
CONTINUOUS
 62
       179
  5
DE
 10
24.6694005459
 20
31.1590035353
 30
0.0
 40
11.7511413539
 50
134.8139865811
 51
152.9568441885
  0
ARC
  8
0
  6
CONTINUOUS
 62
       179
  5
DF
 10
16.2876847423
 20
37.9725594198
 30
0.0
 40
0.0336650179
 50
174.9999998913
 51
355.0
  0
ARC
  8
0
  6
CONTINUOUS
 62
       179
  5
E0
 10
24.6694005459
 20
31.1590035353
 30
0.0
 40
11.7511413538
 50
104.9056736014
 51
134.3078709605
  0
ARC
  8
0
  6
CONTINUOUS
 62
       179
  5
E1
 10
21.3224391806
 20
45.5014897368
 30
0.0
 40
0.0370336318
 50
150.7236864256
 51
330.7236864256
  0
ARC
  8
0
  6
CONTINUOUS
 62
       179
  5
E2
 10
24.8540615316
 20
35.1292147278
 30
0.0
 40
11.7511413539
 50
72.4385360035
 51
94.1087913556
  0
ARC
  8
0
  6
CONTINUOUS
 62
       179
  5
E3
 10
27.688278229
 20
45.6784623873
 30
0.0
 40
0.0479458298
 50
129.757246987
 51
309.7572469869
  0
ARC
  8
0
  6
CONTINUOUS
 62
       179
  5
E4
 10
24.8540615316
 20
35.1292147278
 30
0.0
 40
11.7511414083
 50
43.6749951142
 51
71.8847584024
  0
ARC
  8
0
  6
CONTINUOUS
 62
       179
  5
E5
 10
32.5737687376
 20
42.8403618059
 30
0.0
 40
0.0727987331
 50
112.6279846667
 51
292.6279846667
  0
ARC
  8
0
  6
CONTINUOUS
 62
       179
  5
E6
 10
24.8540615316
 20
35.1292147278
 30
0.0
 40
11.7511414083
 50
31.0501111125
 51
42.9162617762
  0
ARC
  8
0
  6
CONTINUOUS
 62
       179
  5
E7
 10
24.8540615316
 20
35.1292147278
 30
0.0
 40
10.1261414083
 50
19.8285675473
 51
94.7695736211
  0
ARC
  8
0
  6
CONTINUOUS
 62
       179
  5
E8
 10
15.6670197486
 20
33.3549452475
 30
0.0
 40
5.5669117004
 50
92.0952297833
 51
97.4390730974
  0
ARC
  8
0
  6
CONTINUOUS
 62
       179
  5
E9
 10
24.8540615316
 20
35.1292147278
 30
0.0
 40
11.7511413539
 50
134.8139865811
 51
152.9568441885
  0
ARC
  8
0
  6
CONTINUOUS
 62
       179
  5
EA
 10
16.472345728
 20
41.9427706123
 30
0.0
 40
0.0336650179
 50
174.9999998913
 51
355.0
  0
ARC
  8
0
  6
CONTINUOUS
 62
       179
  5
EB
 10
24.8540615316
 20
35.1292147278
 30
0.0
 40
11.7511413539
 50
104.9056736014
 51
134.3078709602
  0
ARC
  8
0
  6
CONTINUOUS
 62
       179
  5
EC
 10
66.2256495374
 20
26.4461389873
 30
0.0
 40
5.0915929259
 50
64.6871245503
 51
86.3156843886
  0
ARC
  8
0
  6
CONTINUOUS
 62
       179
  5
ED
 10
57.0357492302
 20
28.0683225723
 30
0.0
 40
10.1261412877
 50
19.9731590377
 51
30.5862362465
  0
ARC
  8
0
  6
CONTINUOUS
 62
       179
  5
EE
 10
65.6501487779
 20
34.5852101662
 30
0.0
 40
0.0312880192
 50
2.9999488712
 51
182.9999488717
  0
ARC
  8
0
  6
CONTINUOUS
 62
       179
  5
EF
 10
57.0357492302
 20
28.0683225723
 30
0.0
 40
10.1261414083
 50
31.3413250449
 51
63.2992536016
  0
ARC
  8
0
  6
CONTINUOUS
 62
       179
  5
F0
 10
60.9272074056
 20
38.311027281
 30
0.0
 40
0.0370336318
 50
27.2763135113
 51
207.2763135114
  0
ARC
  8
0
  6
CONTINUOUS
 62
       179
  5
F1
 10
57.0357492302
 20
28.0683225723
 30
0.0
 40
10.1261414084
 50
64.0058811661
 51
92.8478029249
  0
ARC
  8
0
  6
CONTINUOUS
 62
       179
  5
F2
 10
54.5714224876
 20
38.7100566777
 30
0.0
 40
0.0479458445
 50
48.2427804953
 51
228.2427804467
  0
ARC
  8
0
  6
CONTINUOUS
 62
       179
  5
F3
 10
57.0357492302
 20
28.0683225723
 30
0.0
 40
10.1261414083
 50
100.13464615
 51
130.7414308019
  0
ARC
  8
0
  6
CONTINUOUS
 62
       179
  5
F4
 10
49.5898598133
 20
36.0441861241
 30
0.0
 40
0.0727987331
 50
65.3720154169
 51
245.3720153887
  0
ARC
  8
0
  6
CONTINUOUS
 62
       179
  5
F5
 10
57.0357492302
 20
28.0683225723
 30
0.0
 40
10.1261414083
 50
131.6444845867
 51
146.69003902
  0
ARC
  8
0
  6
CONTINUOUS
 62
       179
  5
F6
 10
57.0357492302
 20
28.0683225723
 30
0.0
 40
11.7511415896
 50
14.6929536554
 51
92.4537357478
  0
ARC
  8
0
  6
CONTINUOUS
 62
       179
  5
F7
 10
66.4103105231
 20
29.9546977156
 30
0.0
 40
5.0915929259
 50
64.6871245503
 51
86.3156843886
  0
ARC
  8
0
  6
CONTINUOUS
 62
       179
  5
F8
 10
57.2204102159
 20
31.5768813006
 30
0.0
 40
10.1261412877
 50
19.9731590377
 51
30.5862362465
  0
ARC
  8
0
  6
CONTINUOUS
 62
       179
  5
F9
 10
65.8348097636
 20
38.0937688944
 30
0.0
 40
0.0312880192
 50
2.9999488712
 51
182.9999488717
  0
ARC
  8
0
  6
CONTINUOUS
 62
       179
  5
FA
 10
57.2204102159
 20
31.5768813006
 30
0.0
 40
10.1261414083
 50
31.3413250449
 51
63.2992536016
  0
ARC
  8
0
  6
CONTINUOUS
 62
       179
  5
FB
 10
61.1118683913
 20
41.8195860093
 30
0.0
 40
0.0370336318
 50
27.2763134941
 51
207.2763134941
  0
ARC
  8
0
  6
CONTINUOUS
 62
       179
  5
FC
 10
57.2204102159
 20
31.5768813006
 30
0.0
 40
10.1261414084
 50
64.0058811661
 51
93.8944782803
  0
ARC
  8
0
  6
CONTINUOUS
 62
       179
  5
FD
 10
54.7560834733
 20
42.218615406
 30
0.0
 40
0.0479458445
 50
48.2427804158
 51
228.2427804467
  0
ARC
  8
0
  6
CONTINUOUS
 62
       179
  5
FE
 10
57.2204102159
 20
31.5768813006
 30
0.0
 40
10.1261414083
 50
100.13464615
 51
130.7414308019
  0
ARC
  8
0
  6
CONTINUOUS
 62
       179
  5
FF
 10
49.774520799
 20
39.5527448523
 30
0.0
 40
0.072798733
 50
65.3720153841
 51
245.3720153888
  0
ARC
  8
0
  6
CONTINUOUS
 62
       179
  5
100
 10
57.2204102159
 20
31.5768813006
 30
0.0
 40
10.1261414083
 50
131.6444845871
 51
146.69003902
  0
ARC
  8
0
  6
CONTINUOUS
 62
       179
  5
101
 10
57.2204102159
 20
31.5768813006
 30
0.0
 40
11.7511415896
 50
14.6929536554
 51
93.3552663329
  0
ARC
  8
0
  6
CONTINUOUS
 62
       179
  5
102
 10
66.5026410159
 20
33.7402479225
 30
0.0
 40
5.0915929259
 50
64.6871245502
 51
86.3156843885
  0
ARC
  8
0
  6
CONTINUOUS
 62
       179
  5
103
 10
57.3127407088
 20
35.3624315074
 30
0.0
 40
10.1261412877
 50
19.9731590379
 51
30.5862362465
  0
ARC
  8
0
  6
CONTINUOUS
 62
       179
  5
104
 10
65.9271402564
 20
41.8793191012
 30
0.0
 40
0.0312880191
 50
2.999948857
 51
182.9999488561
  0
ARC
  8
0
  6
CONTINUOUS
 62
       179
  5
105
 10
57.3127407088
 20
35.3624315074
 30
0.0
 40
10.1261414083
 50
31.3413250449
 51
63.2992536016
  0
ARC
  8
0
  6
CONTINUOUS
 62
       179
  5
106
 10
61.2041988841
 20
45.6051362161
 30
0.0
 40
0.0370336318
 50
27.2763134911
 51
207.2763134911
  0
ARC
  8
0
  6
CONTINUOUS
 62
       179
  5
107
 10
57.3127407088
 20
35.3624315074
 30
0.0
 40
10.1261414084
 50
64.0058811667
 51
94.4182825497
  0
ARC
  8
0
  6
CONTINUOUS
 62
       179
  5
108
 10
54.8484139661
 20
46.0041656128
 30
0.0
 40
0.0479458445
 50
48.2427803266
 51
228.2427804467
  0
ARC
  8
0
  6
CONTINUOUS
 62
       179
  5
109
 10
57.3127407088
 20
35.3624315074
 30
0.0
 40
10.1261414083
 50
100.13464615
 51
130.7414308019
  0
ARC
  8
0
  6
CONTINUOUS
 62
       179
  5
10A
 10
49.8668512918
 20
43.3382950592
 30
0.0
 40
0.0727987331
 50
65.3720153454
 51
245.3720153888
  0
ARC
  8
0
  6
CONTINUOUS
 62
       179
  5
10B
 10
57.3127407088
 20
35.3624315074
 30
0.0
 40
10.1261414083
 50
131.6444845867
 51
146.69003902
  0
ARC
  8
0
  6
CONTINUOUS
 62
       179
  5
10C
 10
57.3127407088
 20
35.3624315074
 30
0.0
 40
11.7511415895
 50
14.6929536556
 51
93.8063296857
  0
ARC
  8
0
  6
CONTINUOUS
 62
       179
  5
10D
 10
5.6088347728
 20
34.5762481564
 30
0.0
 40
0.0370336318
 50
233.7236864406
 51
53.7236864726
  0
ARC
  8
0
  6
CONTINUOUS
 62
       179
  5
10E
 10
16.3341929677
 20
36.8174839924
 30
0.0
 40
11.7511414084
 50
155.4385360035
 51
176.8925224271
  0
ARC
  8
0
  6
CONTINUOUS
 62
       179
  5
10F
 10
6.2089819038
 20
40.9162047654
 30
0.0
 40
0.0479458445
 50
212.7572194865
 51
32.7572195533
  0
ARC
  8
0
  6
CONTINUOUS
 62
       179
  5
110
 10
16.3341929677
 20
36.8174839924
 30
0.0
 40
11.7511414083
 50
126.6749951142
 51
154.8847584024
  0
ARC
  8
0
  6
CONTINUOUS
 62
       179
  5
111
 10
9.6213192591
 20
45.4194021029
 30
0.0
 40
0.0727987331
 50
195.6279846044
 51
15.6279846044
  0
ARC
  8
0
  6
CONTINUOUS
 62
       179
  5
112
 10
16.3341929677
 20
36.8174839924
 30
0.0
 40
11.7511414083
 50
114.0501111125
 51
125.9162617761
  0
ARC
  8
0
  6
CONTINUOUS
 62
       179
  5
113
 10
16.3341929677
 20
36.8174839924
 30
0.0
 40
10.1261414083
 50
102.8285675471
 51
176.3932337245
  0
ARC
  8
0
  6
CONTINUOUS
 62
       179
  5
114
 10
16.9756184676
 20
27.4826908636
 30
0.0
 40
5.5669117005
 50
175.0952183637
 51
180.439061679
  0
ARC
  8
0
  6
CONTINUOUS
 62
       179
  5
115
 10
16.3341929677
 20
36.8174839924
 30
0.0
 40
11.7511414085
 50
217.8139865811
 51
235.9568437602
  0
ARC
  8
0
  6
CONTINUOUS
 62
       179
  5
116
 10
8.5499500509
 20
29.3286077759
 30
0.0
 40
0.0336650179
 50
257.9999999927
 51
78.0
  0
ARC
  8
0
  6
CONTINUOUS
 62
       179
  5
117
 10
16.3341929677
 20
36.8174839924
 30
0.0
 40
11.7511414084
 50
187.9056736013
 51
217.3078709623
  0
ARC
  8
0
  6
CONTINUOUS
 62
       179
  5
118
 10
1.7032811048
 20
34.3604582677
 30
0.0
 40
0.0370336318
 50
235.7236865345
 51
55.7236864726
  0
ARC
  8
0
  6
CONTINUOUS
 62
       179
  5
119
 10
12.3438876987
 20
36.9746384064
 30
0.0
 40
11.7511414084
 50
157.4385360035
 51
177.659642565
  0
ARC
  8
0
  6
CONTINUOUS
 62
       179
  5
11A
 10
2.0818013477
 20
40.7174975793
 30
0.0
 40
0.0479458445
 50
214.7572195301
 51
34.7572195533
  0
ARC
  8
0
  6
CONTINUOUS
 62
       179
  5
11B
 10
12.3438876987
 20
36.9746384064
 30
0.0
 40
11.7511414083
 50
128.6749951142
 51
156.884758402
  0
ARC
  8
0
  6
CONTINUOUS
 62
       179
  5
11C
 10
5.3349006787
 20
45.3370405469
 30
0.0
 40
0.0727987331
 50
197.6279846156
 51
17.6279846156
  0
ARC
  8
0
  6
CONTINUOUS
 62
       179
  5
11D
 10
12.3438876987
 20
36.9746384064
 30
0.0
 40
11.7511414083
 50
116.0501111125
 51
127.9162617759
  0
ARC
  8
0
  6
CONTINUOUS
 62
       179
  5
11E
 10
12.3438876987
 20
36.9746384064
 30
0.0
 40
10.1261414083
 50
104.828567547
 51
177.2838098935
  0
ARC
  8
0
  6
CONTINUOUS
 62
       179
  5
11F
 10
13.3107020415
 20
27.6679172096
 30
0.0
 40
5.5669117004
 50
177.0952183744
 51
182.4390616903
  0
ARC
  8
0
  6
CONTINUOUS
 62
       179
  5
120
 10
12.3438876987
 20
36.9746384064
 30
0.0
 40
11.7511414085
 50
219.8139865811
 51
237.9568437606
  0
ARC
  8
0
  6
CONTINUOUS
 62
       179
  5
121
 10
4.8257447431
 20
29.2186580509
 30
0.0
 40
0.0336650179
 50
260.000000006
 51
80.0
  0
ARC
  8
0
  6
CONTINUOUS
 62
       179
  5
122
 10
12.3438876987
 20
36.9746384064
 30
0.0
 40
11.7511414084
 50
189.9056736012
 51
219.3078709624
  0
ARC
  8
0
  6
CONTINUOUS
 62
       179
  5
123
 10
12.3438876987
 20
36.9746384064
 30
0.0
 40
11.7511414084
 50
178.8031195026
 51
189.4042167054
  0
ARC
  8
0
  6
CONTINUOUS
 62
       179
  5
124
 10
12.3438876987
 20
36.9746384064
 30
0.0
 40
10.1261414083
 50
178.611014192
 51
243.0268422122
  0
ARC
  8
0
  6
CONTINUOUS
 62
       179
  5
125
 10
16.3341929677
 20
36.8174839924
 30
0.0
 40
11.7511414084
 50
178.0365746276
 51
187.4042167055
  0
ARC
  8
0
  6
CONTINUOUS
 62
       179
  5
126
 10
16.3341929677
 20
36.8174839924
 30
0.0
 40
10.1261414083
 50
177.7213377826
 51
241.0268422122
  0
ARC
  8
0
  6
CONTINUOUS
 62
       179
  5
127
 10
19.9112527308
 20
36.220567466
 30
0.0
 40
11.7511414083
 50
175.1206397296
 51
184.4042167055
  0
ARC
  8
0
  6
CONTINUOUS
 62
       179
  5
128
 10
19.9112527308
 20
36.220567466
 30
0.0
 40
10.1261414083
 50
174.3352382438
 51
238.0268422122
  0
ARC
  8
0
  6
CONTINUOUS
 62
       179
  5
129
 10
24.6694005459
 20
23.9572250931
 30
0.0
 40
10.1261414082
 50
94.6637697988
 51
158.0268422122
  0
ARC
  8
0
  6
CONTINUOUS
 62
       179
  5
12A
 10
24.6694005459
 20
23.9572250931
 30
0.0
 40
11.7511413539
 50
94.0176983475
 51
104.4042167035
  0
ARC
  8
0
  6
CONTINUOUS
 62
       179
  5
12B
 10
24.6694005459
 20
27.4657838213
 30
0.0
 40
10.1261414083
 50
94.6637697989
 51
158.0268422122
  0
ARC
  8
0
  6
CONTINUOUS
 62
       179
  5
12C
 10
24.6694005459
 20
27.4657838213
 30
0.0
 40
11.751141354
 50
94.0176983475
 51
104.4042167034
  0
ARC
  8
0
  6
CONTINUOUS
 62
       179
  5
12D
 10
24.6694005459
 20
31.1590035353
 30
0.0
 40
10.1261414083
 50
94.6637697989
 51
158.0268422122
  0
ARC
  8
0
  6
CONTINUOUS
 62
       179
  5
12E
 10
38.0543636973
 20
33.962843011
 30
0.0
 40
0.0370336318
 50
235.7236865345
 51
55.7236864726
  0
ARC
  8
0
  6
CONTINUOUS
 62
       179
  5
12F
 10
48.6949702911
 20
36.5770231497
 30
0.0
 40
11.7511414084
 50
157.4385360035
 51
176.1692613764
  0
ARC
  8
0
  6
CONTINUOUS
 62
       179
  5
130
 10
38.4328839402
 20
40.3198823226
 30
0.0
 40
0.0479458445
 50
214.7572195301
 51
34.7572195533
  0
ARC
  8
0
  6
CONTINUOUS
 62
       179
  5
131
 10
48.6949702911
 20
36.5770231497
 30
0.0
 40
11.7511414083
 50
128.6749951142
 51
156.884758402
  0
ARC
  8
0
  6
CONTINUOUS
 62
       179
  5
132
 10
41.6859832711
 20
44.9394252902
 30
0.0
 40
0.0727987331
 50
197.6279846156
 51
17.6279846156
  0
ARC
  8
0
  6
CONTINUOUS
 62
       179
  5
133
 10
48.6949702911
 20
36.5770231497
 30
0.0
 40
11.7511414083
 50
116.0501111125
 51
127.9162617759
  0
ARC
  8
0
  6
CONTINUOUS
 62
       179
  5
134
 10
48.6949702911
 20
36.5770231497
 30
0.0
 40
10.1261414083
 50
104.828567547
 51
175.5533696378
  0
ARC
  8
0
  6
CONTINUOUS
 62
       179
  5
135
 10
49.6617846339
 20
27.2703019528
 30
0.0
 40
5.5669117004
 50
177.0952183744
 51
182.4390616903
  0
ARC
  8
0
  6
CONTINUOUS
 62
       179
  5
136
 10
48.6949702911
 20
36.5770231497
 30
0.0
 40
11.7511414085
 50
219.8139865811
 51
237.9568437606
  0
ARC
  8
0
  6
CONTINUOUS
 62
       179
  5
137
 10
41.1768273356
 20
28.8210427941
 30
0.0
 40
0.0336650179
 50
260.000000006
 51
80.0
  0
ARC
  8
0
  6
CONTINUOUS
 62
       179
  5
138
 10
48.6949702911
 20
36.5770231497
 30
0.0
 40
11.7511414084
 50
189.9056736012
 51
219.3078709624
  0
ARC
  8
0
  6
CONTINUOUS
 62
       179
  5
139
 10
24.6694005459
 20
31.1590035353
 30
0.0
 40
11.7511413538
 50
94.0176983476
 51
104.4042167035
  0
ARC
  8
0
  6
CONTINUOUS
 62
       179
  5
13A
 10
24.8540615316
 20
35.1292147278
 30
0.0
 40
10.1261414083
 50
95.7129326538
 51
158.0268422122
  0
ARC
  8
0
  6
CONTINUOUS
 62
       179
  5
13B
 10
24.8540615316
 20
35.1292147278
 30
0.0
 40
11.7511413539
 50
94.9208169827
 51
104.4042167035
  0
ARC
  8
0
  6
CONTINUOUS
 62
       179
  5
13C
 10
48.6949702911
 20
36.5770231497
 30
0.0
 40
11.7511414084
 50
176.8629617199
 51
189.4042167054
  0
ARC
  8
0
  6
CONTINUOUS
 62
       179
  5
13D
 10
48.6949702911
 20
36.5770231497
 30
0.0
 40
10.1261414083
 50
176.358911533
 51
243.0268422122
  0
ARC
  8
0
  6
CONTINUOUS
 62
       179
  5
13E
 10
57.2204102159
 20
31.5768813006
 30
0.0
 40
11.7511415896
 50
94.4025016556
 51
146.9498888876
  0
ARC
  8
0
  6
CONTINUOUS
 62
       179
  5
13F
 10
57.2204102159
 20
31.5768813006
 30
0.0
 40
10.1261414084
 50
95.1107451709
 51
99.4417882712
  0
ARC
  8
0
  6
CONTINUOUS
 62
       179
  5
140
 10
57.0357492302
 20
28.0683225723
 30
0.0
 40
11.7511415896
 50
93.4999839352
 51
146.9498888876
  0
ARC
  8
0
  6
CONTINUOUS
 62
       179
  5
141
 10
57.0357492302
 20
28.0683225723
 30
0.0
 40
10.1261414084
 50
94.0625241017
 51
99.4417882712
  0
ARC
  8
0
  6
CONTINUOUS
 62
       179
  5
142
 10
56.7563500527
 20
24.6295897766
 30
0.0
 40
11.7511415895
 50
92.1360182509
 51
146.9498888876
  0
ARC
  8
0
  6
CONTINUOUS
 62
       179
  5
143
 10
56.7563500527
 20
24.6295897766
 30
0.0
 40
10.1261414084
 50
92.4789966184
 51
99.4417882712
  0
ARC
  8
0
  6
CONTINUOUS
 62
       179
  5
144
 10
57.3127407088
 20
35.3624315074
 30
0.0
 40
10.1261414084
 50
95.6354774762
 51
99.4417882712
  0
ARC
  8
0
  6
CONTINUOUS
 62
       179
  5
145
 10
57.3127407088
 20
35.3624315074
 30
0.0
 40
11.7511415895
 50
94.8541572099
 51
146.9498888876
  0
ENDSEC
  0
EOF
