  0
SECTION
  2
HEADER
  9
$ACADVER
  1
AC1009
  9
$DWGCODEPAGE
  3
ansi_1252
  9
$INSBASE
 10
0.0
 20
0.0
 30
0.0
  9
$EXTMIN
 10
0.0
 20
0.0
 30
0.0
  9
$EXTMAX
 10
72.0
 20
48.0
 30
0.0
  9
$LIMMIN
 10
0.0
 20
0.0
  9
$LIMMAX
 10
0.0
 20
0.0
  9
$ORTHOMODE
 70
         0
  9
$REGENMODE
 70
         1
  9
$FILLMODE
 70
         1
  9
$QTEXTMODE
 70
         0
  9
$MIRRTEXT
 70
         1
  9
$DRAGMODE
 70
         2
  9
$LTSCALE
 40
1.0
  9
$OSMODE
 70
         0
  9
$ATTMODE
 70
         1
  9
$TEXTSIZE
 40
0.1377952756
  9
$TRACEWID
 40
0.05
  9
$TEXTSTYLE
  7
STANDARD
  9
$CLAYER
  8
0
  9
$CELTYPE
  6
CONTINUOUS
  9
$CECOLOR
 62
       256
  9
$DIMSCALE
 40
1.0
  9
$DIMASZ
 40
0.0
  9
$DIMEXO
 40
0.0
  9
$DIMDLI
 40
0.38
  9
$DIMRND
 40
0.0
  9
$DIMDLE
 40
0.0
  9
$DIMEXE
 40
0.18
  9
$DIMTP
 40
0.0
  9
$DIMTM
 40
0.0
  9
$DIMTXT
 40
0.1377952756
  9
$DIMCEN
 40
0.09
  9
$DIMTSZ
 40
0.0
  9
$DIMTOL
 70
         0
  9
$DIMLIM
 70
         0
  9
$DIMTIH
 70
         1
  9
$DIMTOH
 70
         1
  9
$DIMSE1
 70
         0
  9
$DIMSE2
 70
         0
  9
$DIMTAD
 70
         1
  9
$DIMZIN
 70
         0
  9
$DIMBLK
  1

  9
$DIMASO
 70
         1
  9
$DIMSHO
 70
         1
  9
$DIMPOST
  1

  9
$DIMAPOST
  1

  9
$DIMALT
 70
         0
  9
$DIMALTD
 70
         2
  9
$DIMALTF
 40
25.4
  9
$DIMLFAC
 40
1.0
  9
$DIMTOFL
 70
         0
  9
$DIMTVP
 40
0.0
  9
$DIMTIX
 70
         0
  9
$DIMSOXD
 70
         0
  9
$DIMSAH
 70
         0
  9
$DIMBLK1
  1

  9
$DIMBLK2
  1

  9
$DIMSTYLE
  2
STANDARD
  9
$DIMCLRD
 70
         0
  9
$DIMCLRE
 70
         0
  9
$DIMCLRT
 70
         0
  9
$DIMTFAC
 40
1.0
  9
$DIMGAP
 40
0.0
  9
$LUNITS
 70
         2
  9
$LUPREC
 70
         2
  9
$AXISMODE
 70
         0
  9
$AXISUNIT
 10
0.0
 20
0.0
  9
$SKETCHINC
 40
0.1
  9
$FILLETRAD
 40
0.0
  9
$AUNITS
 70
         0
  9
$AUPREC
 70
         2
  9
$MENU
  1
acad
  9
$ELEVATION
 40
0.0
  9
$PELEVATION
 40
0.0
  9
$THICKNESS
 40
0.0
  9
$LIMCHECK
 70
         0
  9
$BLIPMODE
 70
         1
  9
$CHAMFERA
 40
0.0
  9
$CHAMFERB
 40
0.0
  9
$SKPOLY
 70
         0
  9
$TDCREATE
 40
0.000000000
  9
$TDUPDATE
 40
0.000000000
  9
$TDINDWG
 40
0.0000000000
  9
$TDUSRTIMER
 40
0.0000000000
  9
$USRTIMER
 70
         1
  9
$ANGBASE
 50
0.0
  9
$ANGDIR
 70
         0
  9
$PDMODE
 70
         0
  9
$PDSIZE
 40
-1.0
  9
$PLINEWID
 40
0.0
  9
$COORDS
 70
         0
  9
$SPLFRAME
 70
         0
  9
$SPLINETYPE
 70
         6
  9
$SPLINESEGS
 70
         8
  9
$ATTDIA
 70
         0
  9
$ATTREQ
 70
         1
  9
$HANDLING
 70
         1
  9
$HANDSEED
  5
11B
  9
$SURFTAB1
 70
         6
  9
$SURFTAB2
 70
         6
  9
$SURFTYPE
 70
         6
  9
$SURFU
 70
         6
  9
$SURFV
 70
         6
  9
$UCSNAME
  2

  9
$UCSORG
 10
0.0
 20
0.0
 30
0.0
  9
$UCSXDIR
 10
1.0
 20
0.0
 30
0.0
  9
$UCSYDIR
 10
0.0
 20
1.0
 30
0.0
  9
$PUCSNAME
  2

  9
$PUCSORG
 10
0.0
 20
0.0
 30
0.0
  9
$PUCSXDIR
 10
1.0
 20
0.0
 30
0.0
  9
$PUCSYDIR
 10
0.0
 20
1.0
 30
0.0
  9
$USERI1
 70
         0
  9
$USERI2
 70
         0
  9
$USERI3
 70
         0
  9
$USERI4
 70
         0
  9
$USERI5
 70
         0
  9
$USERR1
 40
0.0
  9
$USERR2
 40
0.0
  9
$USERR3
 40
0.0
  9
$USERR4
 40
0.0
  9
$USERR5
 40
0.0
  9
$WORLDVIEW
 70
         1
  9
$SHADEDGE
 70
         3
  9
$SHADEDIF
 70
        70
  9
$TILEMODE
 70
         1
  9
$MAXACTVP
 70
        16
  9
$PINSBASE
 10
0.0
 20
0.0
 30
0.0
  9
$PLIMCHECK
 70
         0
  9
$PEXTMIN
 10
1.0000000000E+20
 20
1.0000000000E+20
 30
1.0000000000E+20
  9
$PEXTMAX
 10
-1.0000000000E+20
 20
-1.0000000000E+20
 30
-1.0000000000E+20
  9
$PLIMMIN
 10
0.0
 20
0.0
  9
$PLIMMAX
 10
12.0
 20
9.0
  9
$UNITMODE
 70
         0
  9
$VISRETAIN
 70
         0
  9
$PLINEGEN
 70
         1
  9
$PSLTSCALE
 70
         1
  9
$TREEDEPTH
 70
      3020
  0
ENDSEC
  0
SECTION
  2
TABLES
  0
TABLE
  2
VPORT
 70
         1
  0
VPORT
  2
*ACTIVE
 70
         0
 10
0.0
 20
0.0
 11
1.0
 21
1.0
 12
36.0
 22
24.0
 13
0.0
 23
0.0
 14
1.0
 24
1.0
 15
0.0
 25
0.0
 16
0.0
 26
0.0
 36
1.0
 17
0.0
 27
0.0
 37
0.0
 40
48.0
 41
0.6666666667
 42
50.0
 43
0.0
 44
0.0
 50
0.0
 51
0.0
 71
         0
 72
      2000
 73
         1
 74
         1
 75
         0
 76
         0
 77
         0
 78
         0
  0
ENDTAB
  0
TABLE
  2
LTYPE
 70
         6
  0
LTYPE
  2
CONTINUOUS
 70
        64
  3
Solid line
 72
        65
 73
         0
 40
0.0
  0
LTYPE
  2
HIDDEN
 70
        64
  3
Hidden __ __ __ __ __ __ __ __ __ __ __ __ __ __
 72
        65
 73
         2
 40
0.075
 49
0.05
 49
-0.025
  0
LTYPE
  2
PHANTOM
 70
        64
  3
Phantom ______  __  __  ______  __  __  ______
 72
        65
 73
         6
 40
0.5
 49
0.25
 49
-0.05
 49
0.05
 49
-0.05
 49
0.05
 49
-0.05
  0
LTYPE
  2
CENTER
 70
        64
  3
Center ____ _ ____ _ ____ _ ____ _ ____ _ ____
 72
        65
 73
         4
 40
0.4
 49
0.25
 49
-0.05
 49
0.05
 49
-0.05
  0
LTYPE
  2
CENTERX2
 70
        64
  3
Center (2x) ________  __  ________  __  _____
 72
        65
 73
         4
 40
0.8
 49
0.5
 49
-0.1
 49
0.1
 49
-0.1
  0
LTYPE
  2
DOT2
 70
        64
  3
Dot (.5x) ........................................
 72
        65
 73
         2
 40
0.025
 49
0.0
 49
-0.025
  0
ENDTAB
  0
TABLE
  2
LAYER
 70
         2
  0
LAYER
  2
0
 70
         0
 62
         7
  6
CONTINUOUS
  0
LAYER
  2
DEFPOINTS
 70
         0
 62
         7
  6
CONTINUOUS
  0
ENDTAB
  0
TABLE
  2
STYLE
 70
         1
  0
STYLE
  2
STANDARD
 70
         0
 40
0.0
 41
1.0
 50
0.0
 71
         0
 42
0.0
  3
txt
  4

  0
ENDTAB
  0
TABLE
  2
VIEW
 70
         0
  0
ENDTAB
  0
TABLE
  2
UCS
 70
         0
  0
ENDTAB
  0
TABLE
  2
APPID
 70
         1
  0
APPID
  2
ACAD
 70
         0
  0
ENDTAB
  0
TABLE
  2
DIMSTYLE
 70
         1
  0
DIMSTYLE
  2
STANDARD
 70
         0
  3

  4

  5

  6

  7

 40
1.0
 41
0.18
 42
0.0625
 43
0.38
 44
0.18
 45
0.0
 46
0.0
 47
0.0
 48
0.0
 71
         0
 72
         0
 73
         1
 74
         1
 75
         0
 76
         0
 77
         0
 78
         0
140
0.18
141
0.09
142
0.0
143
25.4
144
1.0
145
0.0
146
1.0
147
0.09
170
         0
171
         2
172
         0
173
         0
174
         0
175
         0
176
         0
177
         0
178
         0
  0
ENDTAB
  0
ENDSEC
  0
SECTION
  2
BLOCKS
  0
ENDSEC
  0
SECTION
  2
ENTITIES
  0
LINE
  8
0
  6
CONTINUOUS
 62
       179
  5
26
 10
14.4513931778
 20
3.9779265945
 30
0.0
 11
14.419040506
 21
4.0986684095
 31
0.0
  0
LINE
  8
0
  6
CONTINUOUS
 62
       179
  5
27
 10
12.2780596061
 20
3.3955840261
 30
0.0
 11
14.4513931778
 21
3.9779265945
 31
0.0
  0
LINE
  8
0
  6
CONTINUOUS
 62
       179
  5
28
 10
8.3252752933
 20
21.4639719735
 30
0.0
 11
9.646534614
 21
21.8180023415
 31
0.0
  0
LINE
  8
0
  6
CONTINUOUS
 62
       179
  5
29
 10
9.5488784743
 20
21.7270518651
 30
0.0
 11
8.3414711915
 21
21.4035280587
 31
0.0
  0
LINE
  8
0
  6
CONTINUOUS
 62
       179
  5
2A
 10
5.6474843933
 20
16.0680430719
 30
0.0
 11
6.7042290535
 21
16.9322492675
 31
0.0
  0
LINE
  8
0
  6
CONTINUOUS
 62
       179
  5
2B
 10
6.6732824875
 20
16.8112596222
 30
0.0
 11
5.6943734825
 21
16.0107074559
 31
0.0
  0
LINE
  8
0
  6
CONTINUOUS
 62
       179
  5
2C
 10
7.0735800514
 20
10.6608636621
 30
0.0
 11
6.5604377526
 21
9.7633133833
 31
0.0
  0
LINE
  8
0
  6
CONTINUOUS
 62
       179
  5
2D
 10
6.643684807
 20
9.7157198547
 30
0.0
 11
7.1190310881
 21
10.5471601553
 31
0.0
  0
LINE
  8
0
  6
CONTINUOUS
 62
       179
  5
2E
 10
10.1743635452
 20
5.4369939455
 30
0.0
 11
10.3683876513
 21
6.3030207934
 31
0.0
  0
LINE
  8
0
  6
CONTINUOUS
 62
       179
  5
2F
 10
10.4961719173
 20
6.2074014507
 30
0.0
 11
10.3164390232
 21
5.4051634455
 31
0.0
  0
LINE
  8
0
  6
CONTINUOUS
 62
       179
  5
30
 10
14.419040506
 20
4.0986684095
 30
0.0
 11
12.8189121571
 21
4.9287353492
 31
0.0
  0
LINE
  8
0
  6
CONTINUOUS
 62
       179
  5
31
 10
10.6023211231
 20
3.5951018395
 30
0.0
 11
10.5699684513
 21
3.7158436542
 31
0.0
  0
LINE
  8
0
  6
CONTINUOUS
 62
       179
  5
32
 10
8.4289875514
 20
3.012759271
 30
0.0
 11
10.6023211231
 21
3.5951018395
 31
0.0
  0
LINE
  8
0
  6
CONTINUOUS
 62
       179
  5
33
 10
4.4762032387
 20
21.0811472182
 30
0.0
 11
5.7974625593
 21
21.4351775862
 31
0.0
  0
LINE
  8
0
  6
CONTINUOUS
 62
       179
  5
34
 10
5.6998064197
 20
21.3442271098
 30
0.0
 11
4.4923991368
 21
21.0207033035
 31
0.0
  0
LINE
  8
0
  6
CONTINUOUS
 62
       179
  5
35
 10
1.7984123387
 20
15.6852183166
 30
0.0
 11
2.8551569989
 21
16.5494245122
 31
0.0
  0
LINE
  8
0
  6
CONTINUOUS
 62
       179
  5
36
 10
2.8242104329
 20
16.428434867
 30
0.0
 11
1.8453014278
 21
15.6278827006
 31
0.0
  0
LINE
  8
0
  6
CONTINUOUS
 62
       179
  5
37
 10
3.2245079968
 20
10.278038907
 30
0.0
 11
2.7113656979
 21
9.3804886281
 31
0.0
  0
LINE
  8
0
  6
CONTINUOUS
 62
       179
  5
38
 10
2.7946127523
 20
9.3328950995
 30
0.0
 11
3.2699590334
 21
10.1643354001
 31
0.0
  0
LINE
  8
0
  6
CONTINUOUS
 62
       179
  5
39
 10
6.3252914905
 20
5.0541691903
 30
0.0
 11
6.5193155966
 21
5.9201960382
 31
0.0
  0
LINE
  8
0
  6
CONTINUOUS
 62
       179
  5
3A
 10
6.6470998626
 20
5.8245766955
 30
0.0
 11
6.4673669684
 21
5.0223386903
 31
0.0
  0
LINE
  8
0
  6
CONTINUOUS
 62
       179
  5
3B
 10
10.5699684513
 20
3.7158436542
 30
0.0
 11
8.9698401024
 21
4.545910594
 31
0.0
  0
LINE
  8
0
  6
CONTINUOUS
 62
       179
  5
3C
 10
64.0930831039
 20
6.4915066058
 30
0.0
 11
64.0756863572
 21
6.6152908908
 31
0.0
  0
LINE
  8
0
  6
CONTINUOUS
 62
       179
  5
3D
 10
61.8649797704
 20
6.1783675005
 30
0.0
 11
64.0930831039
 21
6.4915066058
 31
0.0
  0
LINE
  8
0
  6
CONTINUOUS
 62
       179
  5
3E
 10
60.1436412897
 20
24.5937992808
 30
0.0
 11
61.4981975922
 21
24.7841697543
 31
0.0
  0
LINE
  8
0
  6
CONTINUOUS
 62
       179
  5
3F
 10
61.3901852918
 20
24.7057984986
 30
0.0
 11
60.1523502059
 21
24.5318321224
 31
0.0
  0
LINE
  8
0
  6
CONTINUOUS
 62
       179
  5
40
 10
56.8282119246
 20
19.5644314337
 30
0.0
 11
57.982400012
 21
20.2934111895
 31
0.0
  0
LINE
  8
0
  6
CONTINUOUS
 62
       179
  5
41
 10
57.9369391884
 20
20.1770948204
 30
0.0
 11
56.8677640558
 21
19.5018088462
 31
0.0
  0
LINE
  8
0
  6
CONTINUOUS
 62
       179
  5
42
 10
57.5847082777
 20
14.0237589779
 30
0.0
 11
56.9660070006
 21
13.1954352177
 31
0.0
  0
LINE
  8
0
  6
CONTINUOUS
 62
       179
  5
43
 10
57.042833352
 20
13.1380511802
 30
0.0
 11
57.6159635575
 21
13.9053639117
 31
0.0
  0
LINE
  8
0
  6
CONTINUOUS
 62
       179
  5
44
 10
60.0257494291
 20
8.4609367455
 30
0.0
 11
60.3238694322
 21
9.2968627702
 31
0.0
  0
LINE
  8
0
  6
CONTINUOUS
 62
       179
  5
45
 10
60.4390481473
 20
9.1863831749
 30
0.0
 11
60.1628867359
 21
8.4120288599
 31
0.0
  0
LINE
  8
0
  6
CONTINUOUS
 62
       179
  5
46
 10
64.0756863572
 20
6.6152908908
 30
0.0
 11
62.5886448353
 21
7.6341772288
 31
0.0
  0
LINE
  8
0
  6
CONTINUOUS
 62
       179
  5
47
 10
60.2678043012
 20
6.5260901146
 30
0.0
 11
60.2504075544
 21
6.6498743997
 31
0.0
  0
LINE
  8
0
  6
CONTINUOUS
 62
       179
  5
48
 10
58.0397009676
 20
6.2129510094
 30
0.0
 11
60.2678043012
 21
6.5260901146
 31
0.0
  0
LINE
  8
0
  6
CONTINUOUS
 62
       179
  5
49
 10
56.318362487
 20
24.6283827896
 30
0.0
 11
57.6729187896
 21
24.818753263
 31
0.0
  0
LINE
  8
0
  6
CONTINUOUS
 62
       179
  5
4A
 10
57.5649064891
 20
24.7403820073
 30
0.0
 11
56.3270714032
 21
24.5664156311
 31
0.0
  0
LINE
  8
0
  6
CONTINUOUS
 62
       179
  5
4B
 10
53.002933122
 20
19.5990149425
 30
0.0
 11
54.1571212094
 21
20.3279946983
 31
0.0
  0
LINE
  8
0
  6
CONTINUOUS
 62
       179
  5
4C
 10
54.1116603857
 20
20.2116783292
 30
0.0
 11
53.0424852531
 21
19.536392355
 31
0.0
  0
LINE
  8
0
  6
CONTINUOUS
 62
       179
  5
4D
 10
53.759429475
 20
14.0583424867
 30
0.0
 11
53.1407281978
 21
13.2300187265
 31
0.0
  0
LINE
  8
0
  6
CONTINUOUS
 62
       179
  5
4E
 10
53.2175545492
 20
13.1726346891
 30
0.0
 11
53.7906847548
 21
13.9399474205
 31
0.0
  0
LINE
  8
0
  6
CONTINUOUS
 62
       179
  5
4F
 10
56.2004706264
 20
8.4955202543
 30
0.0
 11
56.4985906295
 21
9.331446279
 31
0.0
  0
LINE
  8
0
  6
CONTINUOUS
 62
       179
  5
50
 10
56.6137693445
 20
9.2209666838
 30
0.0
 11
56.3376079332
 21
8.4466123688
 31
0.0
  0
LINE
  8
0
  6
CONTINUOUS
 62
       179
  5
51
 10
60.2504075544
 20
6.6498743997
 30
0.0
 11
58.7633660326
 21
7.6687607376
 31
0.0
  0
LINE
  8
0
  6
CONTINUOUS
 62
       179
  5
52
 10
56.3771316463
 20
6.2750536504
 30
0.0
 11
56.3597348995
 21
6.3988379355
 31
0.0
  0
LINE
  8
0
  6
CONTINUOUS
 62
       179
  5
53
 10
54.1490283127
 20
5.9619145452
 30
0.0
 11
56.3771316463
 21
6.2750536504
 31
0.0
  0
LINE
  8
0
  6
CONTINUOUS
 62
       179
  5
54
 10
52.4276898321
 20
24.3773463253
 30
0.0
 11
53.7822461347
 21
24.5677167987
 31
0.0
  0
LINE
  8
0
  6
CONTINUOUS
 62
       179
  5
55
 10
53.6742338342
 20
24.489345543
 30
0.0
 11
52.4363987483
 21
24.3153791668
 31
0.0
  0
LINE
  8
0
  6
CONTINUOUS
 62
       179
  5
56
 10
49.1122604671
 20
19.3479784783
 30
0.0
 11
50.2664485546
 21
20.076958234
 31
0.0
  0
LINE
  8
0
  6
CONTINUOUS
 62
       179
  5
57
 10
50.2209877309
 20
19.960641865
 30
0.0
 11
49.1518125983
 21
19.2853558908
 31
0.0
  0
LINE
  8
0
  6
CONTINUOUS
 62
       179
  5
58
 10
49.8687568201
 20
13.8073060225
 30
0.0
 11
49.250055543
 21
12.9789822623
 31
0.0
  0
LINE
  8
0
  6
CONTINUOUS
 62
       179
  5
59
 10
49.3268818944
 20
12.9215982249
 30
0.0
 11
49.9000120999
 21
13.6889109563
 31
0.0
  0
LINE
  8
0
  6
CONTINUOUS
 62
       179
  5
5A
 10
52.3097979715
 20
8.2444837901
 30
0.0
 11
52.6079179746
 21
9.0804098148
 31
0.0
  0
LINE
  8
0
  6
CONTINUOUS
 62
       179
  5
5B
 10
52.7230966896
 20
8.9699302196
 30
0.0
 11
52.4469352782
 21
8.1955759046
 31
0.0
  0
LINE
  8
0
  6
CONTINUOUS
 62
       179
  5
5C
 10
56.3597348995
 20
6.3988379355
 30
0.0
 11
54.8726933777
 21
7.4177242734
 31
0.0
  0
LINE
  8
0
  6
CONTINUOUS
 62
       179
  5
5D
 10
52.7031778093
 20
6.2626147826
 30
0.0
 11
52.6857810626
 21
6.3863990676
 31
0.0
  0
LINE
  8
0
  6
CONTINUOUS
 62
       179
  5
5E
 10
50.4750744758
 20
5.9494756773
 30
0.0
 11
52.7031778093
 21
6.2626147826
 31
0.0
  0
LINE
  8
0
  6
CONTINUOUS
 62
       179
  5
5F
 10
48.7537359951
 20
24.3649074576
 30
0.0
 11
50.1082922976
 21
24.555277931
 31
0.0
  0
LINE
  8
0
  6
CONTINUOUS
 62
       179
  5
60
 10
50.0002799972
 20
24.4769066754
 30
0.0
 11
48.7624449113
 21
24.3029402991
 31
0.0
  0
LINE
  8
0
  6
CONTINUOUS
 62
       179
  5
61
 10
45.43830663
 20
19.3355396105
 30
0.0
 11
46.5924947174
 21
20.0645193663
 31
0.0
  0
LINE
  8
0
  6
CONTINUOUS
 62
       179
  5
62
 10
46.5470338938
 20
19.9482029972
 30
0.0
 11
45.4778587611
 21
19.2729170229
 31
0.0
  0
LINE
  8
0
  6
CONTINUOUS
 62
       179
  5
63
 10
46.1948029831
 20
13.7948671546
 30
0.0
 11
45.576101706
 21
12.9665433945
 31
0.0
  0
LINE
  8
0
  6
CONTINUOUS
 62
       179
  5
64
 10
45.6529280574
 20
12.9091593569
 30
0.0
 11
46.2260582629
 21
13.6764720885
 31
0.0
  0
LINE
  8
0
  6
CONTINUOUS
 62
       179
  5
65
 10
48.6358441345
 20
8.2320449223
 30
0.0
 11
48.9339641376
 21
9.067970947
 31
0.0
  0
LINE
  8
0
  6
CONTINUOUS
 62
       179
  5
66
 10
49.0491428526
 20
8.9574913517
 30
0.0
 11
48.7729814413
 21
8.1831370367
 31
0.0
  0
LINE
  8
0
  6
CONTINUOUS
 62
       179
  5
67
 10
52.6857810626
 20
6.3863990676
 30
0.0
 11
51.1987395406
 21
7.4052854056
 31
0.0
  0
LINE
  8
0
  6
CONTINUOUS
 62
       179
  5
68
 10
25.2621545177
 20
12.6035140582
 30
0.0
 11
26.262892409
 21
12.1309734785
 31
0.0
  0
LINE
  8
0
  6
CONTINUOUS
 62
       179
  5
69
 10
26.2945179508
 20
12.1979494789
 30
0.0
 11
25.2292571991
 21
12.7009572472
 31
0.0
  0
LINE
  8
0
  6
CONTINUOUS
 62
       179
  5
6A
 10
25.6234749943
 20
18.469289158
 30
0.0
 11
24.9558533347
 21
19.1665199441
 31
0.0
  0
LINE
  8
0
  6
CONTINUOUS
 62
       179
  5
6B
 10
24.9830191203
 20
19.276800486
 30
0.0
 11
25.6927353387
 21
18.5356082406
 31
0.0
  0
LINE
  8
0
  6
CONTINUOUS
 62
       179
  5
6C
 10
27.6913030991
 20
24.3234719124
 30
0.0
 11
28.0834203466
 21
23.5413861972
 31
0.0
  0
LINE
  8
0
  6
CONTINUOUS
 62
       179
  5
6D
 10
28.2135750808
 20
23.6066423643
 30
0.0
 11
27.7968416869
 21
24.437825477
 31
0.0
  0
LINE
  8
0
  6
CONTINUOUS
 62
       179
  5
6E
 10
29.6307662327
 20
26.0310871628
 30
0.0
 11
32.2210984619
 21
25.9858731388
 31
0.0
  0
LINE
  8
0
  6
CONTINUOUS
 62
       179
  5
6F
 10
32.2210984619
 20
25.9858731388
 30
0.0
 11
32.288384637
 21
25.6739867018
 31
0.0
  0
LINE
  8
0
  6
CONTINUOUS
 62
       179
  5
70
 10
33.3338319432
 20
6.2660562922
 30
0.0
 11
31.7796773865
 21
5.5974931204
 31
0.0
  0
LINE
  8
0
  6
CONTINUOUS
 62
       179
  5
71
 10
28.6411659909
 20
7.5673910811
 30
0.0
 11
30.1664933401
 21
7.5407663932
 31
0.0
  0
LINE
  8
0
  6
CONTINUOUS
 62
       179
  5
72
 10
30.1676684111
 20
7.6080861742
 30
0.0
 11
28.5633497859
 21
7.6360896601
 31
0.0
  0
LINE
  8
0
  6
CONTINUOUS
 62
       179
  5
73
 10
21.0606659453
 20
12.2255719742
 30
0.0
 11
22.0614038365
 21
11.7530313944
 31
0.0
  0
LINE
  8
0
  6
CONTINUOUS
 62
       179
  5
74
 10
22.0930293784
 20
11.8200073949
 30
0.0
 11
21.0277686267
 21
12.3230151632
 31
0.0
  0
LINE
  8
0
  6
CONTINUOUS
 62
       179
  5
75
 10
21.4219864218
 20
18.0913470739
 30
0.0
 11
20.7543647624
 21
18.7885778602
 31
0.0
  0
LINE
  8
0
  6
CONTINUOUS
 62
       179
  5
76
 10
20.7815305479
 20
18.898858402
 30
0.0
 11
21.4912467663
 21
18.1576661565
 31
0.0
  0
LINE
  8
0
  6
CONTINUOUS
 62
       179
  5
77
 10
23.4898145267
 20
23.9455298284
 30
0.0
 11
23.8819317742
 21
23.1634441132
 31
0.0
  0
LINE
  8
0
  6
CONTINUOUS
 62
       179
  5
78
 10
24.0120865083
 20
23.2287002803
 30
0.0
 11
23.5953531145
 21
24.0598833929
 31
0.0
  0
LINE
  8
0
  6
CONTINUOUS
 62
       179
  5
79
 10
25.4292776604
 20
25.6531450788
 30
0.0
 11
28.0196098896
 21
25.6079310548
 31
0.0
  0
LINE
  8
0
  6
CONTINUOUS
 62
       179
  5
7A
 10
28.0196098896
 20
25.6079310548
 30
0.0
 11
28.0868960646
 21
25.2960446178
 31
0.0
  0
LINE
  8
0
  6
CONTINUOUS
 62
       179
  5
7B
 10
29.1323433709
 20
5.8881142082
 30
0.0
 11
27.5781888141
 21
5.2195510365
 31
0.0
  0
LINE
  8
0
  6
CONTINUOUS
 62
       179
  5
7C
 10
24.4396774186
 20
7.1894489971
 30
0.0
 11
25.9650047677
 21
7.1628243092
 31
0.0
  0
LINE
  8
0
  6
CONTINUOUS
 62
       179
  5
7D
 10
25.9661798389
 20
7.2301440903
 30
0.0
 11
24.3618612136
 21
7.258147576
 31
0.0
  0
LINE
  8
0
  6
CONTINUOUS
 62
       179
  5
7E
 10
16.8871174377
 20
12.1179734836
 30
0.0
 11
17.8878553289
 21
11.6454329038
 31
0.0
  0
LINE
  8
0
  6
CONTINUOUS
 62
       179
  5
7F
 10
17.9194808708
 20
11.7124089044
 30
0.0
 11
16.854220119
 21
12.2154166726
 31
0.0
  0
LINE
  8
0
  6
CONTINUOUS
 62
       179
  5
80
 10
17.2484379142
 20
17.9837485832
 30
0.0
 11
16.5808162547
 21
18.6809793693
 31
0.0
  0
LINE
  8
0
  6
CONTINUOUS
 62
       179
  5
81
 10
16.6079820402
 20
18.7912599113
 30
0.0
 11
17.3176982586
 21
18.0500676658
 31
0.0
  0
LINE
  8
0
  6
CONTINUOUS
 62
       179
  5
82
 10
19.3162660189
 20
23.8379313376
 30
0.0
 11
19.7083832663
 21
23.0558456225
 31
0.0
  0
LINE
  8
0
  6
CONTINUOUS
 62
       179
  5
83
 10
19.8385380005
 20
23.1211017895
 30
0.0
 11
19.4218046067
 21
23.9522849022
 31
0.0
  0
LINE
  8
0
  6
CONTINUOUS
 62
       179
  5
84
 10
21.2557291525
 20
25.545546588
 30
0.0
 11
23.8460613817
 21
25.5003325641
 31
0.0
  0
LINE
  8
0
  6
CONTINUOUS
 62
       179
  5
85
 10
23.8460613817
 20
25.5003325641
 30
0.0
 11
23.9133475567
 21
25.1884461271
 31
0.0
  0
LINE
  8
0
  6
CONTINUOUS
 62
       179
  5
86
 10
24.9587948631
 20
5.7805157179
 30
0.0
 11
23.4046403063
 21
5.111952546
 31
0.0
  0
LINE
  8
0
  6
CONTINUOUS
 62
       179
  5
87
 10
20.2661289109
 20
7.0818505066
 30
0.0
 11
21.79145626
 21
7.0552258187
 31
0.0
  0
LINE
  8
0
  6
CONTINUOUS
 62
       179
  5
88
 10
21.7926313312
 20
7.1225455999
 30
0.0
 11
20.1883127058
 21
7.1505490856
 31
0.0
  0
LINE
  8
0
  6
CONTINUOUS
 62
       179
  5
89
 10
12.8782020974
 20
11.7399149786
 30
0.0
 11
13.8789399886
 21
11.2673743988
 31
0.0
  0
LINE
  8
0
  6
CONTINUOUS
 62
       179
  5
8A
 10
13.9105655305
 20
11.3343503993
 30
0.0
 11
12.8453047787
 21
11.8373581676
 31
0.0
  0
LINE
  8
0
  6
CONTINUOUS
 62
       179
  5
8B
 10
13.2395225738
 20
17.6056900782
 30
0.0
 11
12.5719009144
 21
18.3029208644
 31
0.0
  0
LINE
  8
0
  6
CONTINUOUS
 62
       179
  5
8C
 10
12.5990666998
 20
18.4132014063
 30
0.0
 11
13.3087829182
 21
17.6720091608
 31
0.0
  0
LINE
  8
0
  6
CONTINUOUS
 62
       179
  5
8D
 10
15.3073506786
 20
23.4598728327
 30
0.0
 11
15.699467926
 21
22.6777871175
 31
0.0
  0
LINE
  8
0
  6
CONTINUOUS
 62
       179
  5
8E
 10
15.8296226602
 20
22.7430432846
 30
0.0
 11
15.4128892664
 21
23.5742263972
 31
0.0
  0
LINE
  8
0
  6
CONTINUOUS
 62
       179
  5
8F
 10
17.2468138123
 20
25.1674880831
 30
0.0
 11
19.8371460415
 21
25.1222740591
 31
0.0
  0
LINE
  8
0
  6
CONTINUOUS
 62
       179
  5
90
 10
19.8371460415
 20
25.1222740591
 30
0.0
 11
19.9044322165
 21
24.8103876221
 31
0.0
  0
LINE
  8
0
  6
CONTINUOUS
 62
       179
  5
91
 10
20.9498795229
 20
5.4024572128
 30
0.0
 11
19.3957249661
 21
4.733894041
 31
0.0
  0
LINE
  8
0
  6
CONTINUOUS
 62
       179
  5
92
 10
16.2572135707
 20
6.7037920016
 30
0.0
 11
17.7825409198
 21
6.6771673137
 31
0.0
  0
LINE
  8
0
  6
CONTINUOUS
 62
       179
  5
93
 10
17.7837159909
 20
6.7444870948
 30
0.0
 11
16.1793973656
 21
6.7724905805
 31
0.0
  0
ARC
  8
0
  6
CONTINUOUS
 62
       179
  5
94
 10
16.1749327498
 20
23.6888833546
 30
0.0
 40
5.0915929259
 50
166.6871277729
 51
188.3156905637
  0
ARC
  8
0
  6
CONTINUOUS
 62
       179
  5
95
 10
16.4988856228
 20
14.3625328408
 30
0.0
 40
10.1261414084
 50
121.9731590376
 51
132.5862362465
  0
ARC
  8
0
  6
CONTINUOUS
 62
       179
  5
96
 10
8.3333732424
 20
21.4337500161
 30
0.0
 40
0.0312880726
 50
105.0000000371
 51
285.0
  0
ARC
  8
0
  6
CONTINUOUS
 62
       179
  5
97
 10
16.4988856228
 20
14.3625328408
 30
0.0
 40
10.1261414084
 50
133.3413250449
 51
165.2992536016
  0
ARC
  8
0
  6
CONTINUOUS
 62
       179
  5
98
 10
5.6709289379
 20
16.0393752639
 30
0.0
 40
0.0370336319
 50
129.2763134645
 51
309.2763135274
  0
ARC
  8
0
  6
CONTINUOUS
 62
       179
  5
99
 10
16.4988856228
 20
14.3625328408
 30
0.0
 40
10.1261414084
 50
166.0058811665
 51
201.4417882712
  0
ARC
  8
0
  6
CONTINUOUS
 62
       179
  5
9A
 10
6.6020612798
 20
9.739516619
 30
0.0
 40
0.0479458445
 50
150.2427804453
 51
330.2427804467
  0
ARC
  8
0
  6
CONTINUOUS
 62
       179
  5
9B
 10
16.4988856228
 20
14.3625328408
 30
0.0
 40
10.1261414083
 50
202.1346461501
 51
232.7414308019
  0
ARC
  8
0
  6
CONTINUOUS
 62
       179
  5
9C
 10
10.2454012842
 20
5.4210786955
 30
0.0
 40
0.0727987331
 50
167.3720154044
 51
347.3720153888
  0
ARC
  8
0
  6
CONTINUOUS
 62
       179
  5
9D
 10
16.4988856228
 20
14.3625328408
 30
0.0
 40
10.1261414083
 50
233.6444845867
 51
248.69003902
  0
ARC
  8
0
  6
CONTINUOUS
 62
       179
  5
9E
 10
16.4988856228
 20
14.3625328408
 30
0.0
 40
11.7511420112
 50
116.6929537635
 51
248.9498888878
  0
ARC
  8
0
  6
CONTINUOUS
 62
       179
  5
9F
 10
12.3258606951
 20
23.3060585993
 30
0.0
 40
5.0915929259
 50
166.6871277729
 51
188.3156905637
  0
ARC
  8
0
  6
CONTINUOUS
 62
       179
  5
A0
 10
12.6498135681
 20
13.9797080856
 30
0.0
 40
10.1261414083
 50
121.973159038
 51
132.5862362465
  0
ARC
  8
0
  6
CONTINUOUS
 62
       179
  5
A1
 10
4.4843011877
 20
21.0509252608
 30
0.0
 40
0.0312880726
 50
104.9999998602
 51
285.0
  0
ARC
  8
0
  6
CONTINUOUS
 62
       179
  5
A2
 10
12.6498135681
 20
13.9797080856
 30
0.0
 40
10.1261414083
 50
133.3413250449
 51
165.2992536016
  0
ARC
  8
0
  6
CONTINUOUS
 62
       179
  5
A3
 10
1.8218568833
 20
15.6565505086
 30
0.0
 40
0.0370336318
 50
129.2763135624
 51
309.2763135274
  0
ARC
  8
0
  6
CONTINUOUS
 62
       179
  5
A4
 10
12.6498135681
 20
13.9797080856
 30
0.0
 40
10.1261414083
 50
166.0058811665
 51
201.4417882712
  0
ARC
  8
0
  6
CONTINUOUS
 62
       179
  5
A5
 10
2.7529892251
 20
9.3566918638
 30
0.0
 40
0.0479458445
 50
150.2427804453
 51
330.2427804467
  0
ARC
  8
0
  6
CONTINUOUS
 62
       179
  5
A6
 10
12.6498135681
 20
13.9797080856
 30
0.0
 40
10.1261414083
 50
202.1346461499
 51
232.7414308019
  0
ARC
  8
0
  6
CONTINUOUS
 62
       179
  5
A7
 10
6.3963292294
 20
5.0382539403
 30
0.0
 40
0.0727987331
 50
167.3720153872
 51
347.3720153888
  0
ARC
  8
0
  6
CONTINUOUS
 62
       179
  5
A8
 10
12.6498135681
 20
13.9797080856
 30
0.0
 40
10.1261414083
 50
233.6444845867
 51
248.69003902
  0
ARC
  8
0
  6
CONTINUOUS
 62
       179
  5
A9
 10
12.6498135681
 20
13.9797080856
 30
0.0
 40
11.7511420111
 50
116.6929537639
 51
248.9498888874
  0
ARC
  8
0
  6
CONTINUOUS
 62
       179
  5
AA
 10
68.2059370968
 20
25.8454931283
 30
0.0
 40
5.0915929259
 50
159.68712307
 51
181.3156817671
  0
ARC
  8
0
  6
CONTINUOUS
 62
       179
  5
AB
 10
67.3908790429
 20
16.5491806744
 30
0.0
 40
10.1261414085
 50
114.973159038
 51
125.5862362465
  0
ARC
  8
0
  6
CONTINUOUS
 62
       179
  5
AC
 10
60.1479957478
 20
24.5628157016
 30
0.0
 40
0.0312880726
 50
98.0000000311
 51
278.0
  0
ARC
  8
0
  6
CONTINUOUS
 62
       179
  5
AD
 10
67.3908790429
 20
16.5491806744
 30
0.0
 40
10.1261414085
 50
126.3413250447
 51
158.2992536016
  0
ARC
  8
0
  6
CONTINUOUS
 62
       179
  5
AE
 10
56.8479879902
 20
19.53312014
 30
0.0
 40
0.0370336318
 50
122.2763136384
 51
302.2763135274
  0
ARC
  8
0
  6
CONTINUOUS
 62
       179
  5
AF
 10
67.3908790429
 20
16.5491806744
 30
0.0
 40
10.1261414084
 50
159.0058811666
 51
194.4417882712
  0
ARC
  8
0
  6
CONTINUOUS
 62
       179
  5
B0
 10
57.0044201763
 20
13.1667431989
 30
0.0
 40
0.0479458445
 50
143.2427804049
 51
323.2427804467
  0
ARC
  8
0
  6
CONTINUOUS
 62
       179
  5
B1
 10
67.3908790429
 20
16.5491806744
 30
0.0
 40
10.1261414083
 50
195.1346461501
 51
225.7414308019
  0
ARC
  8
0
  6
CONTINUOUS
 62
       179
  5
B2
 10
60.0943180825
 20
8.4364828027
 30
0.0
 40
0.0727987331
 50
160.3720153669
 51
340.3720153888
  0
ARC
  8
0
  6
CONTINUOUS
 62
       179
  5
B3
 10
67.3908790429
 20
16.5491806744
 30
0.0
 40
10.1261414083
 50
226.6444845873
 51
241.69003902
  0
ARC
  8
0
  6
CONTINUOUS
 62
       179
  5
B4
 10
67.3908790429
 20
16.5491806744
 30
0.0
 40
11.7511415896
 50
109.6929536556
 51
241.9498888877
  0
ARC
  8
0
  6
CONTINUOUS
 62
       179
  5
B5
 10
64.3806582942
 20
25.8800766372
 30
0.0
 40
5.0915929259
 50
159.6871230718
 51
181.3156817703
  0
ARC
  8
0
  6
CONTINUOUS
 62
       179
  5
B6
 10
63.5656002402
 20
16.5837641832
 30
0.0
 40
10.1261414084
 50
114.973159038
 51
125.5862362465
  0
ARC
  8
0
  6
CONTINUOUS
 62
       179
  5
B7
 10
56.3227169451
 20
24.5973992104
 30
0.0
 40
0.0312880726
 50
98.0000000312
 51
278.0
  0
ARC
  8
0
  6
CONTINUOUS
 62
       179
  5
B8
 10
63.5656002402
 20
16.5837641832
 30
0.0
 40
10.1261414084
 50
126.3413250451
 51
158.2992536016
  0
ARC
  8
0
  6
CONTINUOUS
 62
       179
  5
B9
 10
53.0227091875
 20
19.5677036488
 30
0.0
 40
0.0370336318
 50
122.2763134249
 51
302.2763135274
  0
ARC
  8
0
  6
CONTINUOUS
 62
       179
  5
BA
 10
63.5656002402
 20
16.5837641832
 30
0.0
 40
10.1261414084
 50
159.0058811663
 51
194.4417882712
  0
ARC
  8
0
  6
CONTINUOUS
 62
       179
  5
BB
 10
53.1791413735
 20
13.2013267078
 30
0.0
 40
0.0479458445
 50
143.2427805006
 51
323.2427804467
  0
ARC
  8
0
  6
CONTINUOUS
 62
       179
  5
BC
 10
63.5656002402
 20
16.5837641832
 30
0.0
 40
10.1261414083
 50
195.1346461501
 51
225.7414308019
  0
ARC
  8
0
  6
CONTINUOUS
 62
       179
  5
BD
 10
56.2690392798
 20
8.4710663116
 30
0.0
 40
0.0727987331
 50
160.3720154411
 51
340.3720153888
  0
ARC
  8
0
  6
CONTINUOUS
 62
       179
  5
BE
 10
63.5656002402
 20
16.5837641832
 30
0.0
 40
10.1261414083
 50
226.6444845865
 51
241.69003902
  0
ARC
  8
0
  6
CONTINUOUS
 62
       179
  5
BF
 10
63.5656002402
 20
16.5837641832
 30
0.0
 40
11.7511415895
 50
109.6929536556
 51
241.9498888875
  0
ARC
  8
0
  6
CONTINUOUS
 62
       179
  5
C0
 10
60.4899856393
 20
25.6290401731
 30
0.0
 40
5.0915929259
 50
159.687123073
 51
181.3156817724
  0
ARC
  8
0
  6
CONTINUOUS
 62
       179
  5
C1
 10
59.6749275853
 20
16.332727719
 30
0.0
 40
10.1261414083
 50
114.973159038
 51
125.5862362465
  0
ARC
  8
0
  6
CONTINUOUS
 62
       179
  5
C2
 10
52.4320442902
 20
24.346362746
 30
0.0
 40
0.0312880726
 50
98.0000000057
 51
278.0
  0
ARC
  8
0
  6
CONTINUOUS
 62
       179
  5
C3
 10
59.6749275853
 20
16.332727719
 30
0.0
 40
10.1261414083
 50
126.3413250451
 51
158.2992536016
  0
ARC
  8
0
  6
CONTINUOUS
 62
       179
  5
C4
 10
49.1320365327
 20
19.3166671845
 30
0.0
 40
0.0370336318
 50
122.2763135557
 51
302.2763135274
  0
ARC
  8
0
  6
CONTINUOUS
 62
       179
  5
C5
 10
59.6749275853
 20
16.332727719
 30
0.0
 40
10.1261414083
 50
159.0058811663
 51
194.4417882712
  0
ARC
  8
0
  6
CONTINUOUS
 62
       179
  5
C6
 10
49.2884687187
 20
12.9502902436
 30
0.0
 40
0.0479458445
 50
143.2427805006
 51
323.2427804467
  0
ARC
  8
0
  6
CONTINUOUS
 62
       179
  5
C7
 10
59.6749275853
 20
16.332727719
 30
0.0
 40
10.1261414083
 50
195.13464615
 51
225.7414308019
  0
ARC
  8
0
  6
CONTINUOUS
 62
       179
  5
C8
 10
52.3783666248
 20
8.2200298474
 30
0.0
 40
0.0727987331
 50
160.3720154146
 51
340.3720153888
  0
ARC
  8
0
  6
CONTINUOUS
 62
       179
  5
C9
 10
59.6749275853
 20
16.332727719
 30
0.0
 40
10.1261414083
 50
226.6444845865
 51
241.69003902
  0
ARC
  8
0
  6
CONTINUOUS
 62
       179
  5
CA
 10
59.6749275853
 20
16.332727719
 30
0.0
 40
11.7511415895
 50
109.6929536556
 51
241.9498888875
  0
ARC
  8
0
  6
CONTINUOUS
 62
       179
  5
CB
 10
56.8160318022
 20
25.616601305
 30
0.0
 40
5.0915929259
 50
159.6871230697
 51
181.3156817668
  0
ARC
  8
0
  6
CONTINUOUS
 62
       179
  5
CC
 10
56.0009737483
 20
16.3202888512
 30
0.0
 40
10.1261414085
 50
114.9731590382
 51
125.5862362465
  0
ARC
  8
0
  6
CONTINUOUS
 62
       179
  5
CD
 10
48.7580904532
 20
24.3339238783
 30
0.0
 40
0.0312880726
 50
98.0000000311
 51
278.0
  0
ARC
  8
0
  6
CONTINUOUS
 62
       179
  5
CE
 10
56.0009737483
 20
16.3202888512
 30
0.0
 40
10.1261414085
 50
126.3413250447
 51
158.2992536016
  0
ARC
  8
0
  6
CONTINUOUS
 62
       179
  5
CF
 10
45.4580826955
 20
19.3042283167
 30
0.0
 40
0.0370336318
 50
122.2763134249
 51
302.2763135274
  0
ARC
  8
0
  6
CONTINUOUS
 62
       179
  5
D0
 10
56.0009737483
 20
16.3202888512
 30
0.0
 40
10.1261414084
 50
159.0058811666
 51
194.4417882712
  0
ARC
  8
0
  6
CONTINUOUS
 62
       179
  5
D1
 10
45.6145148817
 20
12.9378513757
 30
0.0
 40
0.0479458445
 50
143.2427804048
 51
323.2427804467
  0
ARC
  8
0
  6
CONTINUOUS
 62
       179
  5
D2
 10
56.0009737483
 20
16.3202888512
 30
0.0
 40
10.1261414083
 50
195.1346461501
 51
225.7414308019
  0
ARC
  8
0
  6
CONTINUOUS
 62
       179
  5
D3
 10
48.7044127879
 20
8.2075909795
 30
0.0
 40
0.0727987331
 50
160.3720153669
 51
340.3720153888
  0
ARC
  8
0
  6
CONTINUOUS
 62
       179
  5
D4
 10
56.0009737483
 20
16.3202888512
 30
0.0
 40
10.1261414083
 50
226.6444845869
 51
241.69003902
  0
ARC
  8
0
  6
CONTINUOUS
 62
       179
  5
D5
 10
56.0009737483
 20
16.3202888512
 30
0.0
 40
11.7511415895
 50
109.6929536558
 51
241.9498888877
  0
ARC
  8
0
  6
CONTINUOUS
 62
       179
  5
D6
 10
26.2787051799
 20
12.1644614787
 30
0.0
 40
0.0370336318
 50
244.7236865072
 51
64.7236864726
  0
ARC
  8
0
  6
CONTINUOUS
 62
       179
  5
D7
 10
36.379360378
 20
16.4110143221
 30
0.0
 40
11.7511414084
 50
166.4385360035
 51
198.4042167058
  0
ARC
  8
0
  6
CONTINUOUS
 62
       179
  5
D8
 10
25.6581051665
 20
18.5024486993
 30
0.0
 40
0.0479458445
 50
223.7572195752
 51
43.7572195533
  0
ARC
  8
0
  6
CONTINUOUS
 62
       179
  5
D9
 10
36.379360378
 20
16.4110143221
 30
0.0
 40
11.7511414084
 50
137.6749951142
 51
165.8847584026
  0
ARC
  8
0
  6
CONTINUOUS
 62
       179
  5
DA
 10
28.1484977137
 20
23.5740142808
 30
0.0
 40
0.0727987331
 50
206.6279846434
 51
26.6279846112
  0
ARC
  8
0
  6
CONTINUOUS
 62
       179
  5
DB
 10
36.379360378
 20
16.4110143221
 30
0.0
 40
11.7511414084
 50
125.0501111124
 51
136.9162617762
  0
ARC
  8
0
  6
CONTINUOUS
 62
       179
  5
DC
 10
36.379360378
 20
16.4110143221
 30
0.0
 40
10.1261414082
 50
113.8285675469
 51
252.0268422122
  0
ARC
  8
0
  6
CONTINUOUS
 62
       179
  5
DD
 10
38.7901635837
 20
7.3701173903
 30
0.0
 40
5.5669117004
 50
186.095218363
 51
191.4390616806
  0
ARC
  8
0
  6
CONTINUOUS
 62
       179
  5
DE
 10
36.379360378
 20
16.4110143221
 30
0.0
 40
11.7511414085
 50
228.8139865811
 51
246.9568437606
  0
ARC
  8
0
  6
CONTINUOUS
 62
       179
  5
DF
 10
30.1670808756
 20
7.5744262837
 30
0.0
 40
0.0336650179
 50
269.0000001262
 51
89.0
  0
ARC
  8
0
  6
CONTINUOUS
 62
       179
  5
E0
 10
36.379360378
 20
16.4110143221
 30
0.0
 40
11.7511414085
 50
198.9056736015
 51
228.3078709625
  0
ARC
  8
0
  6
CONTINUOUS
 62
       179
  5
E1
 10
22.0772166075
 20
11.7865193947
 30
0.0
 40
0.0370336318
 50
244.7236864333
 51
64.7236864726
  0
ARC
  8
0
  6
CONTINUOUS
 62
       179
  5
E2
 10
32.1778718057
 20
16.0330722382
 30
0.0
 40
11.7511414085
 50
166.4385360035
 51
198.4042167058
  0
ARC
  8
0
  6
CONTINUOUS
 62
       179
  5
E3
 10
21.456616594
 20
18.1245066152
 30
0.0
 40
0.0479458445
 50
223.7572195752
 51
43.7572195533
  0
ARC
  8
0
  6
CONTINUOUS
 62
       179
  5
E4
 10
32.1778718057
 20
16.0330722382
 30
0.0
 40
11.7511414084
 50
137.6749951142
 51
165.8847584026
  0
ARC
  8
0
  6
CONTINUOUS
 62
       179
  5
E5
 10
23.9470091413
 20
23.1960721968
 30
0.0
 40
0.0727987331
 50
206.6279846083
 51
26.6279846112
  0
ARC
  8
0
  6
CONTINUOUS
 62
       179
  5
E6
 10
32.1778718057
 20
16.0330722382
 30
0.0
 40
11.7511414083
 50
125.0501111125
 51
136.9162617765
  0
ARC
  8
0
  6
CONTINUOUS
 62
       179
  5
E7
 10
32.1778718057
 20
16.0330722382
 30
0.0
 40
10.1261414083
 50
113.8285675474
 51
252.0268422122
  0
ARC
  8
0
  6
CONTINUOUS
 62
       179
  5
E8
 10
34.5886750114
 20
6.9921753068
 30
0.0
 40
5.5669117004
 50
186.0952183682
 51
191.439061685
  0
ARC
  8
0
  6
CONTINUOUS
 62
       179
  5
E9
 10
32.1778718057
 20
16.0330722382
 30
0.0
 40
11.7511414085
 50
228.8139865811
 51
246.9568437601
  0
ARC
  8
0
  6
CONTINUOUS
 62
       179
  5
EA
 10
25.9655923033
 20
7.1964841997
 30
0.0
 40
0.0336650179
 50
268.999999956
 51
89.0
  0
ARC
  8
0
  6
CONTINUOUS
 62
       179
  5
EB
 10
32.1778718057
 20
16.0330722382
 30
0.0
 40
11.7511414085
 50
198.9056736015
 51
228.3078709628
  0
ARC
  8
0
  6
CONTINUOUS
 62
       179
  5
EC
 10
17.9036680999
 20
11.6789209041
 30
0.0
 40
0.0370336318
 50
244.7236864334
 51
64.7236864726
  0
ARC
  8
0
  6
CONTINUOUS
 62
       179
  5
ED
 10
28.0043232978
 20
15.9254737474
 30
0.0
 40
11.7511414082
 50
166.4385360035
 51
198.4042167052
  0
ARC
  8
0
  6
CONTINUOUS
 62
       179
  5
EE
 10
17.2830680864
 20
18.0169081245
 30
0.0
 40
0.0479458445
 50
223.7572195752
 51
43.7572195533
  0
ARC
  8
0
  6
CONTINUOUS
 62
       179
  5
EF
 10
28.0043232978
 20
15.9254737474
 30
0.0
 40
11.7511414083
 50
137.6749951142
 51
165.8847584023
  0
ARC
  8
0
  6
CONTINUOUS
 62
       179
  5
F0
 10
19.7734606334
 20
23.088473706
 30
0.0
 40
0.0727987331
 50
206.6279845731
 51
26.6279846112
  0
ARC
  8
0
  6
CONTINUOUS
 62
       179
  5
F1
 10
28.0043232978
 20
15.9254737474
 30
0.0
 40
11.7511414083
 50
125.0501111125
 51
136.9162617762
  0
ARC
  8
0
  6
CONTINUOUS
 62
       179
  5
F2
 10
28.0043232978
 20
15.9254737474
 30
0.0
 40
10.1261414083
 50
113.8285675472
 51
252.0268422122
  0
ARC
  8
0
  6
CONTINUOUS
 62
       179
  5
F3
 10
30.4151265032
 20
6.8845768184
 30
0.0
 40
5.5669117004
 50
186.095218393
 51
191.4390617056
  0
ARC
  8
0
  6
CONTINUOUS
 62
       179
  5
F4
 10
28.0043232978
 20
15.9254737474
 30
0.0
 40
11.7511414082
 50
228.8139865811
 51
246.9568437601
  0
ARC
  8
0
  6
CONTINUOUS
 62
       179
  5
F5
 10
21.7920437956
 20
7.0888857093
 30
0.0
 40
0.0336650179
 50
268.999999959
 51
88.9999999999
  0
ARC
  8
0
  6
CONTINUOUS
 62
       179
  5
F6
 10
28.0043232978
 20
15.9254737474
 30
0.0
 40
11.7511414082
 50
198.9056736011
 51
228.3078709621
  0
ARC
  8
0
  6
CONTINUOUS
 62
       179
  5
F7
 10
13.8947527596
 20
11.300862399
 30
0.0
 40
0.0370336318
 50
244.7236864333
 51
64.7236864726
  0
ARC
  8
0
  6
CONTINUOUS
 62
       179
  5
F8
 10
23.9954079576
 20
15.5474152425
 30
0.0
 40
11.7511414084
 50
166.4385360035
 51
198.4042167057
  0
ARC
  8
0
  6
CONTINUOUS
 62
       179
  5
F9
 10
13.274152746
 20
17.6388496195
 30
0.0
 40
0.0479458445
 50
223.7572195752
 51
43.7572195533
  0
ARC
  8
0
  6
CONTINUOUS
 62
       179
  5
FA
 10
23.9954079576
 20
15.5474152425
 30
0.0
 40
11.7511414084
 50
137.6749951142
 51
165.8847584027
  0
ARC
  8
0
  6
CONTINUOUS
 62
       179
  5
FB
 10
15.7645452931
 20
22.710415201
 30
0.0
 40
0.0727987331
 50
206.6279845731
 51
26.6279846112
  0
ARC
  8
0
  6
CONTINUOUS
 62
       179
  5
FC
 10
23.9954079576
 20
15.5474152425
 30
0.0
 40
11.7511414083
 50
125.0501111125
 51
136.9162617765
  0
ARC
  8
0
  6
CONTINUOUS
 62
       179
  5
FD
 10
23.9954079576
 20
15.5474152425
 30
0.0
 40
10.1261414083
 50
113.8285675474
 51
252.0268422122
  0
ARC
  8
0
  6
CONTINUOUS
 62
       179
  5
FE
 10
26.4062111631
 20
6.5065183127
 30
0.0
 40
5.5669117004
 50
186.0952183843
 51
191.4390616989
  0
ARC
  8
0
  6
CONTINUOUS
 62
       179
  5
FF
 10
23.9954079576
 20
15.5474152425
 30
0.0
 40
11.7511414082
 50
228.8139865811
 51
246.9568437601
  0
ARC
  8
0
  6
CONTINUOUS
 62
       179
  5
100
 10
17.7831284554
 20
6.7108272042
 30
0.0
 40
0.0336650179
 50
268.999999956
 51
89.0
  0
ARC
  8
0
  6
CONTINUOUS
 62
       179
  5
101
 10
23.9954079576
 20
15.5474152425
 30
0.0
 40
11.7511414083
 50
198.9056736015
 51
228.3078709624
  0
CIRCLE
  8
0
  6
CONTINUOUS
 62
       179
  5
102
 10
56.3764489789
 20
16.6636162529
 30
0.0
 40
13.5
  0
CIRCLE
  8
0
  6
CONTINUOUS
 62
       179
  5
103
 10
56.3764489789
 20
16.6636162529
 30
0.0
 40
15.0
  0
CIRCLE
  8
0
  6
CONTINUOUS
 62
       179
  5
104
 10
69.9290043361
 20
21.0671084228
 30
0.0
 40
0.14
  0
CIRCLE
  8
0
  6
CONTINUOUS
 62
       179
  5
105
 10
64.7523888241
 20
28.1921084228
 30
0.0
 40
0.14
  0
CIRCLE
  8
0
  6
CONTINUOUS
 62
       179
  5
106
 10
48.0005091338
 20
28.1921084228
 30
0.0
 40
0.14
  0
CIRCLE
  8
0
  6
CONTINUOUS
 62
       179
  5
107
 10
42.8238936217
 20
21.0671084228
 30
0.0
 40
0.14
  0
CIRCLE
  8
0
  6
CONTINUOUS
 62
       179
  5
108
 10
42.8238936217
 20
12.2601240831
 30
0.0
 40
0.14
  0
CIRCLE
  8
0
  6
CONTINUOUS
 62
       179
  5
109
 10
48.0005091338
 20
5.1351240831
 30
0.0
 40
0.14
  0
CIRCLE
  8
0
  6
CONTINUOUS
 62
       179
  5
10A
 10
56.3764489789
 20
2.4136162529
 30
0.0
 40
0.14
  0
CIRCLE
  8
0
  6
CONTINUOUS
 62
       179
  5
10B
 10
64.7523888241
 20
5.1351240831
 30
0.0
 40
0.14
  0
CIRCLE
  8
0
  6
CONTINUOUS
 62
       179
  5
10C
 10
69.9290043361
 20
12.2601240831
 30
0.0
 40
0.14
  0
CIRCLE
  8
0
  6
CONTINUOUS
 62
       179
  5
10D
 10
24.5832435514
 20
15.5977045171
 30
0.0
 40
13.5
  0
CIRCLE
  8
0
  6
CONTINUOUS
 62
       179
  5
10E
 10
24.5832435514
 20
15.5977045171
 30
0.0
 40
15.0
  0
CIRCLE
  8
0
  6
CONTINUOUS
 62
       179
  5
10F
 10
38.1357989086
 20
20.0011966869
 30
0.0
 40
0.14
  0
CIRCLE
  8
0
  6
CONTINUOUS
 62
       179
  5
110
 10
32.9591833966
 20
27.1261966869
 30
0.0
 40
0.14
  0
CIRCLE
  8
0
  6
CONTINUOUS
 62
       179
  5
111
 10
24.5832435514
 20
29.8477045171
 30
0.0
 40
0.14
  0
CIRCLE
  8
0
  6
CONTINUOUS
 62
       179
  5
112
 10
16.2073037062
 20
27.1261966869
 30
0.0
 40
0.14
  0
CIRCLE
  8
0
  6
CONTINUOUS
 62
       179
  5
113
 10
11.0306881942
 20
20.0011966869
 30
0.0
 40
0.14
  0
CIRCLE
  8
0
  6
CONTINUOUS
 62
       179
  5
114
 10
11.0306881942
 20
11.1942123472
 30
0.0
 40
0.14
  0
CIRCLE
  8
0
  6
CONTINUOUS
 62
       179
  5
115
 10
16.2073037062
 20
4.0692123472
 30
0.0
 40
0.14
  0
CIRCLE
  8
0
  6
CONTINUOUS
 62
       179
  5
116
 10
24.5832435514
 20
1.3477045171
 30
0.0
 40
0.14
  0
CIRCLE
  8
0
  6
CONTINUOUS
 62
       179
  5
117
 10
32.9591833966
 20
4.0692123472
 30
0.0
 40
0.14
  0
CIRCLE
  8
0
  6
CONTINUOUS
 62
       179
  5
118
 10
38.1357989086
 20
11.1942123472
 30
0.0
 40
0.14
  0
ENDSEC
  0
EOF
