  0
SECTION
  2
HEADER
  9
$ACADVER
  1
AC1009
  9
$DWGCODEPAGE
  3
ansi_1252
  9
$INSBASE
 10
0.0
 20
0.0
 30
0.0
  9
$EXTMIN
 10
0.0
 20
0.0
 30
0.0
  9
$EXTMAX
 10
24.0
 20
24.0
 30
0.0
  9
$LIMMIN
 10
0.0
 20
0.0
  9
$LIMMAX
 10
0.0
 20
0.0
  9
$ORTHOMODE
 70
         0
  9
$REGENMODE
 70
         1
  9
$FILLMODE
 70
         1
  9
$QTEXTMODE
 70
         0
  9
$MIRRTEXT
 70
         1
  9
$DRAGMODE
 70
         2
  9
$LTSCALE
 40
1.0
  9
$OSMODE
 70
         0
  9
$ATTMODE
 70
         1
  9
$TEXTSIZE
 40
0.1377952756
  9
$TRACEWID
 40
0.05
  9
$TEXTSTYLE
  7
STANDARD
  9
$CLAYER
  8
0
  9
$CELTYPE
  6
CONTINUOUS
  9
$CECOLOR
 62
       256
  9
$DIMSCALE
 40
1.0
  9
$DIMASZ
 40
0.0
  9
$DIMEXO
 40
0.0
  9
$DIMDLI
 40
0.38
  9
$DIMRND
 40
0.0
  9
$DIMDLE
 40
0.0
  9
$DIMEXE
 40
0.18
  9
$DIMTP
 40
0.0
  9
$DIMTM
 40
0.0
  9
$DIMTXT
 40
0.1377952756
  9
$DIMCEN
 40
0.09
  9
$DIMTSZ
 40
0.0
  9
$DIMTOL
 70
         0
  9
$DIMLIM
 70
         0
  9
$DIMTIH
 70
         1
  9
$DIMTOH
 70
         1
  9
$DIMSE1
 70
         0
  9
$DIMSE2
 70
         0
  9
$DIMTAD
 70
         1
  9
$DIMZIN
 70
         0
  9
$DIMBLK
  1

  9
$DIMASO
 70
         1
  9
$DIMSHO
 70
         1
  9
$DIMPOST
  1

  9
$DIMAPOST
  1

  9
$DIMALT
 70
         0
  9
$DIMALTD
 70
         2
  9
$DIMALTF
 40
25.4
  9
$DIMLFAC
 40
1.0
  9
$DIMTOFL
 70
         0
  9
$DIMTVP
 40
0.0
  9
$DIMTIX
 70
         0
  9
$DIMSOXD
 70
         0
  9
$DIMSAH
 70
         0
  9
$DIMBLK1
  1

  9
$DIMBLK2
  1

  9
$DIMSTYLE
  2
STANDARD
  9
$DIMCLRD
 70
         0
  9
$DIMCLRE
 70
         0
  9
$DIMCLRT
 70
         0
  9
$DIMTFAC
 40
1.0
  9
$DIMGAP
 40
0.0
  9
$LUNITS
 70
         2
  9
$LUPREC
 70
         2
  9
$AXISMODE
 70
         0
  9
$AXISUNIT
 10
0.0
 20
0.0
  9
$SKETCHINC
 40
0.1
  9
$FILLETRAD
 40
0.0
  9
$AUNITS
 70
         0
  9
$AUPREC
 70
         2
  9
$MENU
  1
acad
  9
$ELEVATION
 40
0.0
  9
$PELEVATION
 40
0.0
  9
$THICKNESS
 40
0.0
  9
$LIMCHECK
 70
         0
  9
$BLIPMODE
 70
         1
  9
$CHAMFERA
 40
0.0
  9
$CHAMFERB
 40
0.0
  9
$SKPOLY
 70
         0
  9
$TDCREATE
 40
0.000000000
  9
$TDUPDATE
 40
0.000000000
  9
$TDINDWG
 40
0.0000000000
  9
$TDUSRTIMER
 40
0.0000000000
  9
$USRTIMER
 70
         1
  9
$ANGBASE
 50
0.0
  9
$ANGDIR
 70
         0
  9
$PDMODE
 70
         0
  9
$PDSIZE
 40
-1.0
  9
$PLINEWID
 40
0.0
  9
$COORDS
 70
         0
  9
$SPLFRAME
 70
         0
  9
$SPLINETYPE
 70
         6
  9
$SPLINESEGS
 70
         8
  9
$ATTDIA
 70
         0
  9
$ATTREQ
 70
         1
  9
$HANDLING
 70
         1
  9
$HANDSEED
  5
64
  9
$SURFTAB1
 70
         6
  9
$SURFTAB2
 70
         6
  9
$SURFTYPE
 70
         6
  9
$SURFU
 70
         6
  9
$SURFV
 70
         6
  9
$UCSNAME
  2

  9
$UCSORG
 10
0.0
 20
0.0
 30
0.0
  9
$UCSXDIR
 10
1.0
 20
0.0
 30
0.0
  9
$UCSYDIR
 10
0.0
 20
1.0
 30
0.0
  9
$PUCSNAME
  2

  9
$PUCSORG
 10
0.0
 20
0.0
 30
0.0
  9
$PUCSXDIR
 10
1.0
 20
0.0
 30
0.0
  9
$PUCSYDIR
 10
0.0
 20
1.0
 30
0.0
  9
$USERI1
 70
         0
  9
$USERI2
 70
         0
  9
$USERI3
 70
         0
  9
$USERI4
 70
         0
  9
$USERI5
 70
         0
  9
$USERR1
 40
0.0
  9
$USERR2
 40
0.0
  9
$USERR3
 40
0.0
  9
$USERR4
 40
0.0
  9
$USERR5
 40
0.0
  9
$WORLDVIEW
 70
         1
  9
$SHADEDGE
 70
         3
  9
$SHADEDIF
 70
        70
  9
$TILEMODE
 70
         1
  9
$MAXACTVP
 70
        16
  9
$PINSBASE
 10
0.0
 20
0.0
 30
0.0
  9
$PLIMCHECK
 70
         0
  9
$PEXTMIN
 10
1.0000000000E+20
 20
1.0000000000E+20
 30
1.0000000000E+20
  9
$PEXTMAX
 10
-1.0000000000E+20
 20
-1.0000000000E+20
 30
-1.0000000000E+20
  9
$PLIMMIN
 10
0.0
 20
0.0
  9
$PLIMMAX
 10
12.0
 20
9.0
  9
$UNITMODE
 70
         0
  9
$VISRETAIN
 70
         0
  9
$PLINEGEN
 70
         1
  9
$PSLTSCALE
 70
         1
  9
$TREEDEPTH
 70
      3020
  0
ENDSEC
  0
SECTION
  2
TABLES
  0
TABLE
  2
VPORT
 70
         1
  0
VPORT
  2
*ACTIVE
 70
         0
 10
0.0
 20
0.0
 11
1.0
 21
1.0
 12
12.0
 22
12.0
 13
0.0
 23
0.0
 14
1.0
 24
1.0
 15
0.0
 25
0.0
 16
0.0
 26
0.0
 36
1.0
 17
0.0
 27
0.0
 37
0.0
 40
24.0
 41
1.0
 42
50.0
 43
0.0
 44
0.0
 50
0.0
 51
0.0
 71
         0
 72
      2000
 73
         1
 74
         1
 75
         0
 76
         0
 77
         0
 78
         0
  0
ENDTAB
  0
TABLE
  2
LTYPE
 70
         6
  0
LTYPE
  2
CONTINUOUS
 70
        64
  3
Solid line
 72
        65
 73
         0
 40
0.0
  0
LTYPE
  2
HIDDEN
 70
        64
  3
Hidden __ __ __ __ __ __ __ __ __ __ __ __ __ __
 72
        65
 73
         2
 40
0.075
 49
0.05
 49
-0.025
  0
LTYPE
  2
PHANTOM
 70
        64
  3
Phantom ______  __  __  ______  __  __  ______
 72
        65
 73
         6
 40
0.5
 49
0.25
 49
-0.05
 49
0.05
 49
-0.05
 49
0.05
 49
-0.05
  0
LTYPE
  2
CENTER
 70
        64
  3
Center ____ _ ____ _ ____ _ ____ _ ____ _ ____
 72
        65
 73
         4
 40
0.4
 49
0.25
 49
-0.05
 49
0.05
 49
-0.05
  0
LTYPE
  2
CENTERX2
 70
        64
  3
Center (2x) ________  __  ________  __  _____
 72
        65
 73
         4
 40
0.8
 49
0.5
 49
-0.1
 49
0.1
 49
-0.1
  0
LTYPE
  2
DOT2
 70
        64
  3
Dot (.5x) ........................................
 72
        65
 73
         2
 40
0.025
 49
0.0
 49
-0.025
  0
ENDTAB
  0
TABLE
  2
LAYER
 70
         2
  0
LAYER
  2
0
 70
         0
 62
         7
  6
CONTINUOUS
  0
LAYER
  2
DEFPOINTS
 70
         0
 62
         7
  6
CONTINUOUS
  0
ENDTAB
  0
TABLE
  2
STYLE
 70
         1
  0
STYLE
  2
STANDARD
 70
         0
 40
0.0
 41
1.0
 50
0.0
 71
         0
 42
0.0
  3
txt
  4

  0
ENDTAB
  0
TABLE
  2
VIEW
 70
         0
  0
ENDTAB
  0
TABLE
  2
UCS
 70
         0
  0
ENDTAB
  0
TABLE
  2
APPID
 70
         1
  0
APPID
  2
ACAD
 70
         0
  0
ENDTAB
  0
TABLE
  2
DIMSTYLE
 70
         1
  0
DIMSTYLE
  2
STANDARD
 70
         0
  3

  4

  5

  6

  7

 40
1.0
 41
0.18
 42
0.0625
 43
0.38
 44
0.18
 45
0.0
 46
0.0
 47
0.0
 48
0.0
 71
         0
 72
         0
 73
         1
 74
         1
 75
         0
 76
         0
 77
         0
 78
         0
140
0.18
141
0.09
142
0.0
143
25.4
144
1.0
145
0.0
146
1.0
147
0.09
170
         0
171
         2
172
         0
173
         0
174
         0
175
         0
176
         0
177
         0
178
         0
  0
ENDTAB
  0
ENDSEC
  0
SECTION
  2
BLOCKS
  0
BLOCK
  8
0
 62
         0
  5
3B
  2
SW_CENTERMARK0
 70
         0
 10
0.0
 20
0.0
 30
0.0
  3
SW_CENTERMARK0
  0
LINE
  8
0
  6
CONTINUOUS
 62
         7
  5
3C
 10
10.6093845978
 20
-3.2364417478
 30
0.0
 11
10.5989317515
 21
-3.1369895583
 31
0.0
  0
LINE
  8
0
  6
CONTINUOUS
 62
         7
  5
3D
 10
10.6093845978
 20
-3.2364417478
 30
0.0
 11
10.5099324082
 21
-3.2468945941
 31
0.0
  0
LINE
  8
0
  6
CONTINUOUS
 62
         7
  5
3E
 10
10.6093845978
 20
-3.2364417478
 30
0.0
 11
10.6198374441
 21
-3.3358939373
 31
0.0
  0
LINE
  8
0
  6
CONTINUOUS
 62
         7
  5
3F
 10
10.6093845978
 20
-3.2364417478
 30
0.0
 11
10.7088367873
 21
-3.2259889015
 31
0.0
  0
ENDBLK
  8
0
  5
40
  0
BLOCK
  8
0
 62
         0
  5
43
  2
SW_CENTERMARK1
 70
         0
 10
0.0
 20
0.0
 30
0.0
  3
SW_CENTERMARK1
  0
LINE
  8
0
  6
CONTINUOUS
 62
         7
  5
44
 10
2.7562750676
 20
4.3388034175
 30
0.0
 11
2.7458222213
 21
4.438255607
 31
0.0
  0
LINE
  8
0
  6
CONTINUOUS
 62
         7
  5
45
 10
2.7562750676
 20
4.3388034175
 30
0.0
 11
2.6568228781
 21
4.3283505711
 31
0.0
  0
LINE
  8
0
  6
CONTINUOUS
 62
         7
  5
46
 10
2.7562750676
 20
4.3388034175
 30
0.0
 11
2.766727914
 21
4.2393512279
 31
0.0
  0
LINE
  8
0
  6
CONTINUOUS
 62
         7
  5
47
 10
2.7562750676
 20
4.3388034175
 30
0.0
 11
2.8557272572
 21
4.3492562638
 31
0.0
  0
ENDBLK
  8
0
  5
48
  0
BLOCK
  8
0
 62
         0
  5
4B
  2
SW_CENTERMARK2
 70
         0
 10
0.0
 20
0.0
 30
0.0
  3
SW_CENTERMARK2
  0
LINE
  8
0
  6
CONTINUOUS
 62
         7
  5
4C
 10
7.5914897988
 20
7.2617353342
 30
0.0
 11
7.5810369525
 21
7.3611875237
 31
0.0
  0
LINE
  8
0
  6
CONTINUOUS
 62
         7
  5
4D
 10
7.5914897988
 20
7.2617353342
 30
0.0
 11
7.4920376093
 21
7.2512824878
 31
0.0
  0
LINE
  8
0
  6
CONTINUOUS
 62
         7
  5
4E
 10
7.5914897988
 20
7.2617353342
 30
0.0
 11
7.6019426451
 21
7.1622831446
 31
0.0
  0
LINE
  8
0
  6
CONTINUOUS
 62
         7
  5
4F
 10
7.5914897988
 20
7.2617353342
 30
0.0
 11
7.6909419883
 21
7.2721881805
 31
0.0
  0
ENDBLK
  8
0
  5
50
  0
BLOCK
  8
0
 62
         0
  5
53
  2
SW_CENTERMARK3
 70
         0
 10
0.0
 20
0.0
 30
0.0
  3
SW_CENTERMARK3
  0
LINE
  8
0
  6
CONTINUOUS
 62
         7
  5
54
 10
13.9594479195
 20
7.1958888749
 30
0.0
 11
13.9489950732
 21
7.2953410644
 31
0.0
  0
LINE
  8
0
  6
CONTINUOUS
 62
         7
  5
55
 10
13.9594479195
 20
7.1958888749
 30
0.0
 11
13.8599957299
 21
7.1854360285
 31
0.0
  0
LINE
  8
0
  6
CONTINUOUS
 62
         7
  5
56
 10
13.9594479195
 20
7.1958888749
 30
0.0
 11
13.9699007658
 21
7.0964366853
 31
0.0
  0
LINE
  8
0
  6
CONTINUOUS
 62
         7
  5
57
 10
13.9594479195
 20
7.1958888749
 30
0.0
 11
14.058900109
 21
7.2063417212
 31
0.0
  0
ENDBLK
  8
0
  5
58
  0
BLOCK
  8
0
 62
         0
  5
5B
  2
SW_CENTERMARK4
 70
         0
 10
0.0
 20
0.0
 30
0.0
  3
SW_CENTERMARK4
  0
LINE
  8
0
  6
CONTINUOUS
 62
         7
  5
5C
 10
18.8709109165
 20
3.7223575492
 30
0.0
 11
18.8604580702
 21
3.8218097388
 31
0.0
  0
LINE
  8
0
  6
CONTINUOUS
 62
         7
  5
5D
 10
18.8709109165
 20
3.7223575492
 30
0.0
 11
18.771458727
 21
3.7119047029
 31
0.0
  0
LINE
  8
0
  6
CONTINUOUS
 62
         7
  5
5E
 10
18.8709109165
 20
3.7223575492
 30
0.0
 11
18.8813637629
 21
3.6229053597
 31
0.0
  0
LINE
  8
0
  6
CONTINUOUS
 62
         7
  5
5F
 10
18.8709109165
 20
3.7223575492
 30
0.0
 11
18.9703631061
 21
3.7328103956
 31
0.0
  0
ENDBLK
  8
0
  5
60
  0
ENDSEC
  0
SECTION
  2
ENTITIES
  0
LINE
  8
0
  6
CONTINUOUS
 62
         7
  5
24
 10
0.6729293458
 20
0.410353101
 30
0.0
 11
0.7972445827
 21
0.4234191589
 31
0.0
  0
LINE
  8
0
  6
CONTINUOUS
 62
         7
  5
25
 10
0.4377403035
 20
2.6480273656
 30
0.0
 11
0.6729293458
 21
0.410353101
 31
0.0
  0
ARC
  8
0
  6
CONTINUOUS
 62
         7
  5
26
 10
19.8715904094
 20
-4.3754344806
 30
0.0
 40
5.0915872699
 50
67.6871180825
 51
89.3156973246
  0
ARC
  8
0
  6
CONTINUOUS
 62
         7
  5
27
 10
10.6093845978
 20
-3.2364417478
 30
0.0
 40
10.1261414083
 50
22.9731577878
 51
33.5862362465
  0
LINE
  8
0
  6
CONTINUOUS
 62
         7
  5
28
 10
18.9020275898
 20
3.7256280434
 30
0.0
 11
19.0450087614
 21
2.3652530662
 31
0.0
  0
ARC
  8
0
  6
CONTINUOUS
 62
         7
  5
29
 10
18.8709109165
 20
3.7223575492
 30
0.0
 40
0.0312880726
 50
6.0
 51
186.0
  0
LINE
  8
0
  6
CONTINUOUS
 62
         7
  5
2A
 10
18.9704548223
 20
2.4759346859
 30
0.0
 11
18.8397942433
 21
3.7190870551
 31
0.0
  0
ARC
  8
0
  6
CONTINUOUS
 62
         7
  5
2B
 10
10.6093845978
 20
-3.2364417478
 30
0.0
 40
10.1261414083
 50
34.3413250449
 51
66.2992536016
  0
LINE
  8
0
  6
CONTINUOUS
 62
         7
  5
2C
 10
13.991430314
 20
7.214560145
 30
0.0
 11
14.6796854116
 21
6.0356341311
 31
0.0
  0
ARC
  8
0
  6
CONTINUOUS
 62
         7
  5
2D
 10
13.9594479195
 20
7.1958888749
 30
0.0
 40
0.0370336318
 50
30.2763135274
 51
210.2763135274
  0
LINE
  8
0
  6
CONTINUOUS
 62
         7
  5
2E
 10
14.5650264592
 20
6.0851266441
 30
0.0
 11
13.927465525
 21
7.1772176047
 31
0.0
  0
ARC
  8
0
  6
CONTINUOUS
 62
         7
  5
2F
 10
10.6093845978
 20
-3.2364417478
 30
0.0
 40
10.1261414083
 50
67.0058811666
 51
102.4417882712
  0
LINE
  8
0
  6
CONTINUOUS
 62
         7
  5
30
 10
8.4277317442
 20
6.6518913092
 30
0.0
 11
7.6215049396
 21
7.2991237726
 31
0.0
  0
ARC
  8
0
  6
CONTINUOUS
 62
         7
  5
31
 10
7.5914897988
 20
7.2617353342
 30
0.0
 40
0.0479458445
 50
51.2427804467
 51
231.2427804467
  0
LINE
  8
0
  6
CONTINUOUS
 62
         7
  5
32
 10
7.5614746579
 20
7.2243468958
 30
0.0
 11
8.3083180075
 21
6.6247869975
 31
0.0
  0
ARC
  8
0
  6
CONTINUOUS
 62
         7
  5
33
 10
10.6093845978
 20
-3.2364417478
 30
0.0
 40
10.1261414083
 50
103.1346461502
 51
133.7414308019
  0
LINE
  8
0
  6
CONTINUOUS
 62
         7
  5
34
 10
2.7831071252
 20
4.4064768703
 30
0.0
 11
3.6081196883
 21
4.0793650763
 31
0.0
  0
ARC
  8
0
  6
CONTINUOUS
 62
         7
  5
35
 10
2.7562750676
 20
4.3388034175
 30
0.0
 40
0.0727987331
 50
68.3720153888
 51
248.3720153888
  0
LINE
  8
0
  6
CONTINUOUS
 62
         7
  5
36
 10
3.493687715
 20
3.9681122074
 30
0.0
 11
2.7294430101
 21
4.2711299646
 31
0.0
  0
ARC
  8
0
  6
CONTINUOUS
 62
         7
  5
37
 10
10.6093845978
 20
-3.2364417478
 30
0.0
 40
10.1261414083
 50
134.6444845869
 51
149.69003902
  0
LINE
  8
0
  6
CONTINUOUS
 62
         7
  5
38
 10
0.7972445827
 20
0.4234191589
 30
0.0
 11
1.8674074883
 21
1.8739962018
 31
0.0
  0
ARC
  8
0
  6
CONTINUOUS
 62
         7
  5
39
 10
10.6093845978
 20
-3.2364417478
 30
0.0
 40
11.7511414083
 50
17.6929541157
 51
149.9498888875
  0
INSERT
  8
0
  5
41
  2
SW_CENTERMARK0
 10
0.0
 20
0.0
 30
0.0
  0
INSERT
  8
0
  5
49
  2
SW_CENTERMARK1
 10
0.0
 20
0.0
 30
0.0
  0
INSERT
  8
0
  5
51
  2
SW_CENTERMARK2
 10
0.0
 20
0.0
 30
0.0
  0
INSERT
  8
0
  5
59
  2
SW_CENTERMARK3
 10
0.0
 20
0.0
 30
0.0
  0
INSERT
  8
0
  5
61
  2
SW_CENTERMARK4
 10
0.0
 20
0.0
 30
0.0
  0
ENDSEC
  0
EOF
