  0
SECTION
  2
HEADER
  9
$ACADVER
  1
AC1009
  9
$DWGCODEPAGE
  3
ansi_1252
  9
$INSBASE
 10
0.0
 20
0.0
 30
0.0
  9
$EXTMIN
 10
0.0
 20
0.0
 30
0.0
  9
$EXTMAX
 10
24.0
 20
24.0
 30
0.0
  9
$LIMMIN
 10
0.0
 20
0.0
  9
$LIMMAX
 10
0.0
 20
0.0
  9
$ORTHOMODE
 70
         0
  9
$REGENMODE
 70
         1
  9
$FILLMODE
 70
         1
  9
$QTEXTMODE
 70
         0
  9
$MIRRTEXT
 70
         1
  9
$DRAGMODE
 70
         2
  9
$LTSCALE
 40
1.0
  9
$OSMODE
 70
         0
  9
$ATTMODE
 70
         1
  9
$TEXTSIZE
 40
0.1377952756
  9
$TRACEWID
 40
0.05
  9
$TEXTSTYLE
  7
STANDARD
  9
$CLAYER
  8
0
  9
$CELTYPE
  6
CONTINUOUS
  9
$CECOLOR
 62
       256
  9
$DIMSCALE
 40
1.0
  9
$DIMASZ
 40
0.0
  9
$DIMEXO
 40
0.0
  9
$DIMDLI
 40
0.38
  9
$DIMRND
 40
0.0
  9
$DIMDLE
 40
0.0
  9
$DIMEXE
 40
0.18
  9
$DIMTP
 40
0.0
  9
$DIMTM
 40
0.0
  9
$DIMTXT
 40
0.1377952756
  9
$DIMCEN
 40
0.09
  9
$DIMTSZ
 40
0.0
  9
$DIMTOL
 70
         0
  9
$DIMLIM
 70
         0
  9
$DIMTIH
 70
         1
  9
$DIMTOH
 70
         1
  9
$DIMSE1
 70
         0
  9
$DIMSE2
 70
         0
  9
$DIMTAD
 70
         1
  9
$DIMZIN
 70
         0
  9
$DIMBLK
  1

  9
$DIMASO
 70
         1
  9
$DIMSHO
 70
         1
  9
$DIMPOST
  1

  9
$DIMAPOST
  1

  9
$DIMALT
 70
         0
  9
$DIMALTD
 70
         2
  9
$DIMALTF
 40
25.4
  9
$DIMLFAC
 40
1.0
  9
$DIMTOFL
 70
         0
  9
$DIMTVP
 40
0.0
  9
$DIMTIX
 70
         0
  9
$DIMSOXD
 70
         0
  9
$DIMSAH
 70
         0
  9
$DIMBLK1
  1

  9
$DIMBLK2
  1

  9
$DIMSTYLE
  2
STANDARD
  9
$DIMCLRD
 70
         0
  9
$DIMCLRE
 70
         0
  9
$DIMCLRT
 70
         0
  9
$DIMTFAC
 40
1.0
  9
$DIMGAP
 40
0.0
  9
$LUNITS
 70
         2
  9
$LUPREC
 70
         2
  9
$AXISMODE
 70
         0
  9
$AXISUNIT
 10
0.0
 20
0.0
  9
$SKETCHINC
 40
0.1
  9
$FILLETRAD
 40
0.0
  9
$AUNITS
 70
         0
  9
$AUPREC
 70
         2
  9
$MENU
  1
acad
  9
$ELEVATION
 40
0.0
  9
$PELEVATION
 40
0.0
  9
$THICKNESS
 40
0.0
  9
$LIMCHECK
 70
         0
  9
$BLIPMODE
 70
         1
  9
$CHAMFERA
 40
0.0
  9
$CHAMFERB
 40
0.0
  9
$SKPOLY
 70
         0
  9
$TDCREATE
 40
0.000000000
  9
$TDUPDATE
 40
0.000000000
  9
$TDINDWG
 40
0.0000000000
  9
$TDUSRTIMER
 40
0.0000000000
  9
$USRTIMER
 70
         1
  9
$ANGBASE
 50
0.0
  9
$ANGDIR
 70
         0
  9
$PDMODE
 70
         0
  9
$PDSIZE
 40
-1.0
  9
$PLINEWID
 40
0.0
  9
$COORDS
 70
         0
  9
$SPLFRAME
 70
         0
  9
$SPLINETYPE
 70
         6
  9
$SPLINESEGS
 70
         8
  9
$ATTDIA
 70
         0
  9
$ATTREQ
 70
         1
  9
$HANDLING
 70
         1
  9
$HANDSEED
  5
64
  9
$SURFTAB1
 70
         6
  9
$SURFTAB2
 70
         6
  9
$SURFTYPE
 70
         6
  9
$SURFU
 70
         6
  9
$SURFV
 70
         6
  9
$UCSNAME
  2

  9
$UCSORG
 10
0.0
 20
0.0
 30
0.0
  9
$UCSXDIR
 10
1.0
 20
0.0
 30
0.0
  9
$UCSYDIR
 10
0.0
 20
1.0
 30
0.0
  9
$PUCSNAME
  2

  9
$PUCSORG
 10
0.0
 20
0.0
 30
0.0
  9
$PUCSXDIR
 10
1.0
 20
0.0
 30
0.0
  9
$PUCSYDIR
 10
0.0
 20
1.0
 30
0.0
  9
$USERI1
 70
         0
  9
$USERI2
 70
         0
  9
$USERI3
 70
         0
  9
$USERI4
 70
         0
  9
$USERI5
 70
         0
  9
$USERR1
 40
0.0
  9
$USERR2
 40
0.0
  9
$USERR3
 40
0.0
  9
$USERR4
 40
0.0
  9
$USERR5
 40
0.0
  9
$WORLDVIEW
 70
         1
  9
$SHADEDGE
 70
         3
  9
$SHADEDIF
 70
        70
  9
$TILEMODE
 70
         1
  9
$MAXACTVP
 70
        16
  9
$PINSBASE
 10
0.0
 20
0.0
 30
0.0
  9
$PLIMCHECK
 70
         0
  9
$PEXTMIN
 10
1.0000000000E+20
 20
1.0000000000E+20
 30
1.0000000000E+20
  9
$PEXTMAX
 10
-1.0000000000E+20
 20
-1.0000000000E+20
 30
-1.0000000000E+20
  9
$PLIMMIN
 10
0.0
 20
0.0
  9
$PLIMMAX
 10
12.0
 20
9.0
  9
$UNITMODE
 70
         0
  9
$VISRETAIN
 70
         0
  9
$PLINEGEN
 70
         1
  9
$PSLTSCALE
 70
         1
  9
$TREEDEPTH
 70
      3020
  0
ENDSEC
  0
SECTION
  2
TABLES
  0
TABLE
  2
VPORT
 70
         1
  0
VPORT
  2
*ACTIVE
 70
         0
 10
0.0
 20
0.0
 11
1.0
 21
1.0
 12
12.0
 22
12.0
 13
0.0
 23
0.0
 14
1.0
 24
1.0
 15
0.0
 25
0.0
 16
0.0
 26
0.0
 36
1.0
 17
0.0
 27
0.0
 37
0.0
 40
24.0
 41
1.0
 42
50.0
 43
0.0
 44
0.0
 50
0.0
 51
0.0
 71
         0
 72
      2000
 73
         1
 74
         1
 75
         0
 76
         0
 77
         0
 78
         0
  0
ENDTAB
  0
TABLE
  2
LTYPE
 70
         6
  0
LTYPE
  2
CONTINUOUS
 70
        64
  3
Solid line
 72
        65
 73
         0
 40
0.0
  0
LTYPE
  2
HIDDEN
 70
        64
  3
Hidden __ __ __ __ __ __ __ __ __ __ __ __ __ __
 72
        65
 73
         2
 40
0.075
 49
0.05
 49
-0.025
  0
LTYPE
  2
PHANTOM
 70
        64
  3
Phantom ______  __  __  ______  __  __  ______
 72
        65
 73
         6
 40
0.5
 49
0.25
 49
-0.05
 49
0.05
 49
-0.05
 49
0.05
 49
-0.05
  0
LTYPE
  2
CENTER
 70
        64
  3
Center ____ _ ____ _ ____ _ ____ _ ____ _ ____
 72
        65
 73
         4
 40
0.4
 49
0.25
 49
-0.05
 49
0.05
 49
-0.05
  0
LTYPE
  2
CENTERX2
 70
        64
  3
Center (2x) ________  __  ________  __  _____
 72
        65
 73
         4
 40
0.8
 49
0.5
 49
-0.1
 49
0.1
 49
-0.1
  0
LTYPE
  2
DOT2
 70
        64
  3
Dot (.5x) ........................................
 72
        65
 73
         2
 40
0.025
 49
0.0
 49
-0.025
  0
ENDTAB
  0
TABLE
  2
LAYER
 70
         2
  0
LAYER
  2
0
 70
         0
 62
         7
  6
CONTINUOUS
  0
LAYER
  2
DEFPOINTS
 70
         0
 62
         7
  6
CONTINUOUS
  0
ENDTAB
  0
TABLE
  2
STYLE
 70
         1
  0
STYLE
  2
STANDARD
 70
         0
 40
0.0
 41
1.0
 50
0.0
 71
         0
 42
0.0
  3
txt
  4

  0
ENDTAB
  0
TABLE
  2
VIEW
 70
         0
  0
ENDTAB
  0
TABLE
  2
UCS
 70
         0
  0
ENDTAB
  0
TABLE
  2
APPID
 70
         1
  0
APPID
  2
ACAD
 70
         0
  0
ENDTAB
  0
TABLE
  2
DIMSTYLE
 70
         1
  0
DIMSTYLE
  2
STANDARD
 70
         0
  3

  4

  5

  6

  7

 40
1.0
 41
0.18
 42
0.0625
 43
0.38
 44
0.18
 45
0.0
 46
0.0
 47
0.0
 48
0.0
 71
         0
 72
         0
 73
         1
 74
         1
 75
         0
 76
         0
 77
         0
 78
         0
140
0.18
141
0.09
142
0.0
143
25.4
144
1.0
145
0.0
146
1.0
147
0.09
170
         0
171
         2
172
         0
173
         0
174
         0
175
         0
176
         0
177
         0
178
         0
  0
ENDTAB
  0
ENDSEC
  0
SECTION
  2
BLOCKS
  0
BLOCK
  8
0
 62
         0
  5
3B
  2
SW_CENTERMARK0
 70
         0
 10
0.0
 20
0.0
 30
0.0
  3
SW_CENTERMARK0
  0
LINE
  8
0
  6
CONTINUOUS
 62
         7
  5
3C
 10
11.2716820201
 20
11.8945665041
 30
0.0
 11
11.2716820201
 21
11.9945665041
 31
0.0
  0
LINE
  8
0
  6
CONTINUOUS
 62
         7
  5
3D
 10
11.2716820201
 20
11.8945665041
 30
0.0
 11
11.1716820201
 21
11.8945665041
 31
0.0
  0
LINE
  8
0
  6
CONTINUOUS
 62
         7
  5
3E
 10
11.2716820201
 20
11.8945665041
 30
0.0
 11
11.2716820201
 21
11.7945665041
 31
0.0
  0
LINE
  8
0
  6
CONTINUOUS
 62
         7
  5
3F
 10
11.2716820201
 20
11.8945665041
 30
0.0
 11
11.3716820201
 21
11.8945665041
 31
0.0
  0
ENDBLK
  8
0
  5
40
  0
BLOCK
  8
0
 62
         0
  5
43
  2
SW_CENTERMARK1
 70
         0
 10
0.0
 20
0.0
 30
0.0
  3
SW_CENTERMARK1
  0
LINE
  8
0
  6
CONTINUOUS
 62
         7
  5
44
 10
18.2899426586
 20
20.2491871548
 30
0.0
 11
18.2899426586
 21
20.3491871548
 31
0.0
  0
LINE
  8
0
  6
CONTINUOUS
 62
         7
  5
45
 10
18.2899426586
 20
20.2491871548
 30
0.0
 11
18.1899426586
 21
20.2491871548
 31
0.0
  0
LINE
  8
0
  6
CONTINUOUS
 62
         7
  5
46
 10
18.2899426586
 20
20.2491871548
 30
0.0
 11
18.2899426586
 21
20.1491871548
 31
0.0
  0
LINE
  8
0
  6
CONTINUOUS
 62
         7
  5
47
 10
18.2899426586
 20
20.2491871548
 30
0.0
 11
18.3899426586
 21
20.2491871548
 31
0.0
  0
ENDBLK
  8
0
  5
48
  0
BLOCK
  8
0
 62
         0
  5
4B
  2
SW_CENTERMARK2
 70
         0
 10
0.0
 20
0.0
 30
0.0
  3
SW_CENTERMARK2
  0
LINE
  8
0
  6
CONTINUOUS
 62
         7
  5
4C
 10
13.1756861581
 20
22.6506893792
 30
0.0
 11
13.1756861581
 21
22.7506893792
 31
0.0
  0
LINE
  8
0
  6
CONTINUOUS
 62
         7
  5
4D
 10
13.1756861581
 20
22.6506893792
 30
0.0
 11
13.0756861581
 21
22.6506893792
 31
0.0
  0
LINE
  8
0
  6
CONTINUOUS
 62
         7
  5
4E
 10
13.1756861581
 20
22.6506893792
 30
0.0
 11
13.1756861581
 21
22.5506893792
 31
0.0
  0
LINE
  8
0
  6
CONTINUOUS
 62
         7
  5
4F
 10
13.1756861581
 20
22.6506893792
 30
0.0
 11
13.2756861581
 21
22.6506893792
 31
0.0
  0
ENDBLK
  8
0
  5
50
  0
BLOCK
  8
0
 62
         0
  5
53
  2
SW_CENTERMARK3
 70
         0
 10
0.0
 20
0.0
 30
0.0
  3
SW_CENTERMARK3
  0
LINE
  8
0
  6
CONTINUOUS
 62
         7
  5
54
 10
6.8494952075
 20
21.9195707572
 30
0.0
 11
6.8494952075
 21
22.0195707572
 31
0.0
  0
LINE
  8
0
  6
CONTINUOUS
 62
         7
  5
55
 10
6.8494952075
 20
21.9195707572
 30
0.0
 11
6.7494952075
 21
21.9195707572
 31
0.0
  0
LINE
  8
0
  6
CONTINUOUS
 62
         7
  5
56
 10
6.8494952075
 20
21.9195707572
 30
0.0
 11
6.8494952075
 21
21.8195707572
 31
0.0
  0
LINE
  8
0
  6
CONTINUOUS
 62
         7
  5
57
 10
6.8494952075
 20
21.9195707572
 30
0.0
 11
6.9494952075
 21
21.9195707572
 31
0.0
  0
ENDBLK
  8
0
  5
58
  0
BLOCK
  8
0
 62
         0
  5
5B
  2
SW_CENTERMARK4
 70
         0
 10
0.0
 20
0.0
 30
0.0
  3
SW_CENTERMARK4
  0
LINE
  8
0
  6
CONTINUOUS
 62
         7
  5
5C
 10
2.3280206103
 20
17.9516801201
 30
0.0
 11
2.3280206103
 21
18.0516801201
 31
0.0
  0
LINE
  8
0
  6
CONTINUOUS
 62
         7
  5
5D
 10
2.3280206103
 20
17.9516801201
 30
0.0
 11
2.2280206103
 21
17.9516801201
 31
0.0
  0
LINE
  8
0
  6
CONTINUOUS
 62
         7
  5
5E
 10
2.3280206103
 20
17.9516801201
 30
0.0
 11
2.3280206103
 21
17.8516801201
 31
0.0
  0
LINE
  8
0
  6
CONTINUOUS
 62
         7
  5
5F
 10
2.3280206103
 20
17.9516801201
 30
0.0
 11
2.4280206103
 21
17.9516801201
 31
0.0
  0
ENDBLK
  8
0
  5
60
  0
ENDSEC
  0
SECTION
  2
ENTITIES
  0
LINE
  8
0
  6
CONTINUOUS
 62
         7
  5
24
 10
7.2707396619
 20
22.9436291178
 30
0.0
 11
6.8157363368
 21
21.9347966736
 31
0.0
  0
ARC
  8
0
  6
CONTINUOUS
 62
         7
  5
25
 10
6.8494952075
 20
21.9195707572
 30
0.0
 40
0.0370336318
 50
155.7236864726
 51
335.7236864726
  0
LINE
  8
0
  6
CONTINUOUS
 62
         7
  5
26
 10
6.8832540783
 20
21.9043448408
 30
0.0
 11
7.3675938724
 21
22.9782220442
 31
0.0
  0
ARC
  8
0
  6
CONTINUOUS
 62
         7
  5
27
 10
11.2716820201
 20
11.8945665041
 30
0.0
 40
11.7511414083
 50
77.4385360035
 51
109.4042167057
  0
LINE
  8
0
  6
CONTINUOUS
 62
         7
  5
28
 10
13.1419272874
 20
22.6847355633
 30
0.0
 11
13.8274002774
 21
23.3644238958
 31
0.0
  0
ARC
  8
0
  6
CONTINUOUS
 62
         7
  5
29
 10
13.1756861581
 20
22.6506893792
 30
0.0
 40
0.0479458445
 50
134.7572195533
 51
314.7572195533
  0
LINE
  8
0
  6
CONTINUOUS
 62
         7
  5
2A
 10
13.9381381313
 20
23.3391869086
 30
0.0
 11
13.2094450289
 21
22.6166431951
 31
0.0
  0
ARC
  8
0
  6
CONTINUOUS
 62
         7
  5
2B
 10
11.2716820201
 20
11.8945665041
 30
0.0
 40
11.7511414083
 50
48.6749951142
 51
76.8847584024
  0
LINE
  8
0
  6
CONTINUOUS
 62
         7
  5
2C
 10
19.0313069979
 20
20.7193919755
 30
0.0
 11
18.2561837878
 21
20.3136851716
 31
0.0
  0
ARC
  8
0
  6
CONTINUOUS
 62
         7
  5
2D
 10
18.2899426586
 20
20.2491871548
 30
0.0
 40
0.0727987331
 50
117.6279846112
 51
297.6279846112
  0
LINE
  8
0
  6
CONTINUOUS
 62
         7
  5
2E
 10
18.3237015294
 20
20.1846891379
 30
0.0
 11
19.1474850482
 21
20.6158652066
 31
0.0
  0
ARC
  8
0
  6
CONTINUOUS
 62
         7
  5
2F
 10
11.2716820201
 20
11.8945665041
 30
0.0
 40
11.7511414083
 50
36.0501111125
 51
47.9162617761
  0
LINE
  8
0
  6
CONTINUOUS
 62
         7
  5
30
 10
20.7725104692
 20
18.810026227
 30
0.0
 11
20.7725104692
 21
16.2192993133
 31
0.0
  0
LINE
  8
0
  6
CONTINUOUS
 62
         7
  5
31
 10
20.7725104692
 20
16.2192993133
 30
0.0
 11
20.4618462329
 21
16.1465803285
 31
0.0
  0
ARC
  8
0
  6
CONTINUOUS
 62
         7
  5
32
 10
11.2716820201
 20
11.8945665041
 30
0.0
 40
10.1261414083
 50
24.8285675471
 51
163.0268422122
  0
ARC
  8
0
  6
CONTINUOUS
 62
         7
  5
33
 10
2.2742238265
 20
9.3264203241
 30
0.0
 40
5.5668354698
 50
97.0951858408
 51
102.4391023428
  0
LINE
  8
0
  6
CONTINUOUS
 62
         7
  5
34
 10
1.0751173269
 20
14.7625771238
 30
0.0
 11
0.3795322332
 21
16.3048269745
 31
0.0
  0
ARC
  8
0
  6
CONTINUOUS
 62
         7
  5
35
 10
11.2716820201
 20
11.8945665041
 30
0.0
 40
11.7511414083
 50
139.8139865811
 51
157.9568437605
  0
LINE
  8
0
  6
CONTINUOUS
 62
         7
  5
36
 10
2.2943555924
 20
19.4772398194
 30
0.0
 11
2.2943555924
 21
17.9516801201
 31
0.0
  0
ARC
  8
0
  6
CONTINUOUS
 62
         7
  5
37
 10
2.3280206103
 20
17.9516801201
 30
0.0
 40
0.0336650179
 50
180.0
 51
0.0
  0
LINE
  8
0
  6
CONTINUOUS
 62
         7
  5
38
 10
2.3616856282
 20
17.9516801201
 30
0.0
 11
2.3616856282
 21
19.5562431282
 31
0.0
  0
ARC
  8
0
  6
CONTINUOUS
 62
         7
  5
39
 10
11.2716820201
 20
11.8945665041
 30
0.0
 40
11.7511414083
 50
109.9056736012
 51
139.3078709625
  0
INSERT
  8
0
  5
41
  2
SW_CENTERMARK0
 10
0.0
 20
0.0
 30
0.0
  0
INSERT
  8
0
  5
49
  2
SW_CENTERMARK1
 10
0.0
 20
0.0
 30
0.0
  0
INSERT
  8
0
  5
51
  2
SW_CENTERMARK2
 10
0.0
 20
0.0
 30
0.0
  0
INSERT
  8
0
  5
59
  2
SW_CENTERMARK3
 10
0.0
 20
0.0
 30
0.0
  0
INSERT
  8
0
  5
61
  2
SW_CENTERMARK4
 10
0.0
 20
0.0
 30
0.0
  0
ENDSEC
  0
EOF
