  0
SECTION
  2
HEADER
  9
$ACADVER
  1
AC1009
  9
$DWGCODEPAGE
  3
ansi_1252
  9
$INSBASE
 10
0.0
 20
0.0
 30
0.0
  9
$EXTMIN
 10
0.0
 20
0.0
 30
0.0
  9
$EXTMAX
 10
48.0
 20
72.0
 30
0.0
  9
$LIMMIN
 10
0.0
 20
0.0
  9
$LIMMAX
 10
0.0
 20
0.0
  9
$ORTHOMODE
 70
         0
  9
$REGENMODE
 70
         1
  9
$FILLMODE
 70
         1
  9
$QTEXTMODE
 70
         0
  9
$MIRRTEXT
 70
         1
  9
$DRAGMODE
 70
         2
  9
$LTSCALE
 40
1.0
  9
$OSMODE
 70
         0
  9
$ATTMODE
 70
         1
  9
$TEXTSIZE
 40
0.1377952756
  9
$TRACEWID
 40
0.05
  9
$TEXTSTYLE
  7
STANDARD
  9
$CLAYER
  8
0
  9
$CELTYPE
  6
CONTINUOUS
  9
$CECOLOR
 62
       256
  9
$DIMSCALE
 40
1.0
  9
$DIMASZ
 40
0.0
  9
$DIMEXO
 40
0.0
  9
$DIMDLI
 40
0.38
  9
$DIMRND
 40
0.0
  9
$DIMDLE
 40
0.0
  9
$DIMEXE
 40
0.18
  9
$DIMTP
 40
0.0
  9
$DIMTM
 40
0.0
  9
$DIMTXT
 40
0.1377952756
  9
$DIMCEN
 40
0.09
  9
$DIMTSZ
 40
0.0
  9
$DIMTOL
 70
         0
  9
$DIMLIM
 70
         0
  9
$DIMTIH
 70
         1
  9
$DIMTOH
 70
         1
  9
$DIMSE1
 70
         0
  9
$DIMSE2
 70
         0
  9
$DIMTAD
 70
         1
  9
$DIMZIN
 70
         0
  9
$DIMBLK
  1

  9
$DIMASO
 70
         1
  9
$DIMSHO
 70
         1
  9
$DIMPOST
  1

  9
$DIMAPOST
  1

  9
$DIMALT
 70
         0
  9
$DIMALTD
 70
         2
  9
$DIMALTF
 40
25.4
  9
$DIMLFAC
 40
1.0
  9
$DIMTOFL
 70
         0
  9
$DIMTVP
 40
0.0
  9
$DIMTIX
 70
         0
  9
$DIMSOXD
 70
         0
  9
$DIMSAH
 70
         0
  9
$DIMBLK1
  1

  9
$DIMBLK2
  1

  9
$DIMSTYLE
  2
STANDARD
  9
$DIMCLRD
 70
         0
  9
$DIMCLRE
 70
         0
  9
$DIMCLRT
 70
         0
  9
$DIMTFAC
 40
1.0
  9
$DIMGAP
 40
0.0
  9
$LUNITS
 70
         2
  9
$LUPREC
 70
         2
  9
$AXISMODE
 70
         0
  9
$AXISUNIT
 10
0.0
 20
0.0
  9
$SKETCHINC
 40
0.1
  9
$FILLETRAD
 40
0.0
  9
$AUNITS
 70
         0
  9
$AUPREC
 70
         2
  9
$MENU
  1
acad
  9
$ELEVATION
 40
0.0
  9
$PELEVATION
 40
0.0
  9
$THICKNESS
 40
0.0
  9
$LIMCHECK
 70
         0
  9
$BLIPMODE
 70
         1
  9
$CHAMFERA
 40
0.0
  9
$CHAMFERB
 40
0.0
  9
$SKPOLY
 70
         0
  9
$TDCREATE
 40
0.000000000
  9
$TDUPDATE
 40
0.000000000
  9
$TDINDWG
 40
0.0000000000
  9
$TDUSRTIMER
 40
0.0000000000
  9
$USRTIMER
 70
         1
  9
$ANGBASE
 50
0.0
  9
$ANGDIR
 70
         0
  9
$PDMODE
 70
         0
  9
$PDSIZE
 40
-1.0
  9
$PLINEWID
 40
0.0
  9
$COORDS
 70
         0
  9
$SPLFRAME
 70
         0
  9
$SPLINETYPE
 70
         6
  9
$SPLINESEGS
 70
         8
  9
$ATTDIA
 70
         0
  9
$ATTREQ
 70
         1
  9
$HANDLING
 70
         1
  9
$HANDSEED
  5
213
  9
$SURFTAB1
 70
         6
  9
$SURFTAB2
 70
         6
  9
$SURFTYPE
 70
         6
  9
$SURFU
 70
         6
  9
$SURFV
 70
         6
  9
$UCSNAME
  2

  9
$UCSORG
 10
0.0
 20
0.0
 30
0.0
  9
$UCSXDIR
 10
1.0
 20
0.0
 30
0.0
  9
$UCSYDIR
 10
0.0
 20
1.0
 30
0.0
  9
$PUCSNAME
  2

  9
$PUCSORG
 10
0.0
 20
0.0
 30
0.0
  9
$PUCSXDIR
 10
1.0
 20
0.0
 30
0.0
  9
$PUCSYDIR
 10
0.0
 20
1.0
 30
0.0
  9
$USERI1
 70
         0
  9
$USERI2
 70
         0
  9
$USERI3
 70
         0
  9
$USERI4
 70
         0
  9
$USERI5
 70
         0
  9
$USERR1
 40
0.0
  9
$USERR2
 40
0.0
  9
$USERR3
 40
0.0
  9
$USERR4
 40
0.0
  9
$USERR5
 40
0.0
  9
$WORLDVIEW
 70
         1
  9
$SHADEDGE
 70
         3
  9
$SHADEDIF
 70
        70
  9
$TILEMODE
 70
         1
  9
$MAXACTVP
 70
        16
  9
$PINSBASE
 10
0.0
 20
0.0
 30
0.0
  9
$PLIMCHECK
 70
         0
  9
$PEXTMIN
 10
1.0000000000E+20
 20
1.0000000000E+20
 30
1.0000000000E+20
  9
$PEXTMAX
 10
-1.0000000000E+20
 20
-1.0000000000E+20
 30
-1.0000000000E+20
  9
$PLIMMIN
 10
0.0
 20
0.0
  9
$PLIMMAX
 10
12.0
 20
9.0
  9
$UNITMODE
 70
         0
  9
$VISRETAIN
 70
         0
  9
$PLINEGEN
 70
         1
  9
$PSLTSCALE
 70
         1
  9
$TREEDEPTH
 70
      3020
  0
ENDSEC
  0
SECTION
  2
TABLES
  0
TABLE
  2
VPORT
 70
         1
  0
VPORT
  2
*ACTIVE
 70
         0
 10
0.0
 20
0.0
 11
1.0
 21
1.0
 12
24.0
 22
36.0
 13
0.0
 23
0.0
 14
1.0
 24
1.0
 15
0.0
 25
0.0
 16
0.0
 26
0.0
 36
1.0
 17
0.0
 27
0.0
 37
0.0
 40
72.0
 41
1.5
 42
50.0
 43
0.0
 44
0.0
 50
0.0
 51
0.0
 71
         0
 72
      2000
 73
         1
 74
         1
 75
         0
 76
         0
 77
         0
 78
         0
  0
ENDTAB
  0
TABLE
  2
LTYPE
 70
         6
  0
LTYPE
  2
CONTINUOUS
 70
        64
  3
Solid line
 72
        65
 73
         0
 40
0.0
  0
LTYPE
  2
HIDDEN
 70
        64
  3
Hidden __ __ __ __ __ __ __ __ __ __ __ __ __ __
 72
        65
 73
         2
 40
0.075
 49
0.05
 49
-0.025
  0
LTYPE
  2
PHANTOM
 70
        64
  3
Phantom ______  __  __  ______  __  __  ______
 72
        65
 73
         6
 40
0.5
 49
0.25
 49
-0.05
 49
0.05
 49
-0.05
 49
0.05
 49
-0.05
  0
LTYPE
  2
CENTER
 70
        64
  3
Center ____ _ ____ _ ____ _ ____ _ ____ _ ____
 72
        65
 73
         4
 40
0.4
 49
0.25
 49
-0.05
 49
0.05
 49
-0.05
  0
LTYPE
  2
CENTERX2
 70
        64
  3
Center (2x) ________  __  ________  __  _____
 72
        65
 73
         4
 40
0.8
 49
0.5
 49
-0.1
 49
0.1
 49
-0.1
  0
LTYPE
  2
DOT2
 70
        64
  3
Dot (.5x) ........................................
 72
        65
 73
         2
 40
0.025
 49
0.0
 49
-0.025
  0
ENDTAB
  0
TABLE
  2
LAYER
 70
         2
  0
LAYER
  2
0
 70
         0
 62
         7
  6
CONTINUOUS
  0
LAYER
  2
DEFPOINTS
 70
         0
 62
         7
  6
CONTINUOUS
  0
ENDTAB
  0
TABLE
  2
STYLE
 70
         1
  0
STYLE
  2
STANDARD
 70
         0
 40
0.0
 41
1.0
 50
0.0
 71
         0
 42
0.0
  3
txt
  4

  0
ENDTAB
  0
TABLE
  2
VIEW
 70
         0
  0
ENDTAB
  0
TABLE
  2
UCS
 70
         0
  0
ENDTAB
  0
TABLE
  2
APPID
 70
         1
  0
APPID
  2
ACAD
 70
         0
  0
ENDTAB
  0
TABLE
  2
DIMSTYLE
 70
         1
  0
DIMSTYLE
  2
STANDARD
 70
         0
  3

  4

  5

  6

  7

 40
1.0
 41
0.18
 42
0.0625
 43
0.38
 44
0.18
 45
0.0
 46
0.0
 47
0.0
 48
0.0
 71
         0
 72
         0
 73
         1
 74
         1
 75
         0
 76
         0
 77
         0
 78
         0
140
0.18
141
0.09
142
0.0
143
25.4
144
1.0
145
0.0
146
1.0
147
0.09
170
         0
171
         2
172
         0
173
         0
174
         0
175
         0
176
         0
177
         0
178
         0
  0
ENDTAB
  0
ENDSEC
  0
SECTION
  2
BLOCKS
  0
ENDSEC
  0
SECTION
  2
ENTITIES
  0
LINE
  8
0
  6
CONTINUOUS
 62
         7
  5
24
 10
44.6234671071
 20
31.8264913149
 30
0.0
 11
44.6234671071
 21
33.5764913149
 31
0.0
  0
LINE
  8
0
  6
CONTINUOUS
 62
         7
  5
25
 10
25.7734671071
 20
30.0764913149
 30
0.0
 11
25.7734671071
 21
31.8264913149
 31
0.0
  0
LINE
  8
0
  6
CONTINUOUS
 62
         7
  5
26
 10
25.7734671071
 20
30.0764913149
 30
0.0
 11
44.6234671071
 21
30.0764913149
 31
0.0
  0
LINE
  8
0
  6
CONTINUOUS
 62
         7
  5
27
 10
44.6234671071
 20
30.0764913149
 30
0.0
 11
44.6234671071
 21
31.8264913149
 31
0.0
  0
LINE
  8
0
  6
CONTINUOUS
 62
         7
  5
28
 10
25.7734671071
 20
31.8264913149
 30
0.0
 11
44.6234671071
 21
31.8264913149
 31
0.0
  0
LINE
  8
0
  6
CONTINUOUS
 62
         7
  5
29
 10
44.6234671071
 20
33.5764913149
 30
0.0
 11
25.7734671071
 21
33.5764913149
 31
0.0
  0
LINE
  8
0
  6
CONTINUOUS
 62
         7
  5
2A
 10
25.7734671071
 20
33.5764913149
 30
0.0
 11
25.7734671071
 21
31.8264913149
 31
0.0
  0
LINE
  8
0
  6
CONTINUOUS
 62
         7
  5
2B
 10
4.0335391198
 20
57.7880384768
 30
0.0
 11
4.1542804639
 21
57.8203910224
 31
0.0
  0
LINE
  8
0
  6
CONTINUOUS
 62
         7
  5
2C
 10
3.4511966432
 20
59.9613717057
 30
0.0
 11
4.0335391198
 21
57.7880384768
 31
0.0
  0
ARC
  8
0
  6
CONTINUOUS
 62
         7
  5
2D
 10
23.7444952043
 20
56.0644986508
 30
0.0
 40
5.0915929259
 50
76.6871277729
 51
98.3156905637
  0
ARC
  8
0
  6
CONTINUOUS
 62
         7
  5
2E
 10
14.4181448952
 20
55.7405459056
 30
0.0
 40
10.1261414083
 50
31.9731577878
 51
42.5862362465
  0
LINE
  8
0
  6
CONTINUOUS
 62
         7
  5
2F
 10
21.5195840278
 20
63.914156235
 30
0.0
 11
21.8736143958
 21
62.5928969143
 31
0.0
  0
ARC
  8
0
  6
CONTINUOUS
 62
         7
  5
30
 10
21.4893620704
 20
63.9060582859
 30
0.0
 40
0.0312880726
 50
15.0
 51
195.0
  0
LINE
  8
0
  6
CONTINUOUS
 62
         7
  5
31
 10
21.7826639194
 20
62.690553054
 30
0.0
 11
21.459140113
 21
63.8979603368
 31
0.0
  0
ARC
  8
0
  6
CONTINUOUS
 62
         7
  5
32
 10
14.4181448952
 20
55.7405459056
 30
0.0
 40
10.1261414083
 50
43.3413250449
 51
75.2992536016
  0
LINE
  8
0
  6
CONTINUOUS
 62
         7
  5
33
 10
16.1236551263
 20
66.591947135
 30
0.0
 11
16.9878613219
 21
65.5352024747
 31
0.0
  0
ARC
  8
0
  6
CONTINUOUS
 62
         7
  5
34
 10
16.0949873182
 20
66.5685025904
 30
0.0
 40
0.0370336318
 50
39.2763135274
 51
219.2763135274
  0
LINE
  8
0
  6
CONTINUOUS
 62
         7
  5
35
 10
16.8668716766
 20
65.5661490408
 30
0.0
 11
16.0663195102
 21
66.5450580458
 31
0.0
  0
ARC
  8
0
  6
CONTINUOUS
 62
         7
  5
36
 10
14.4181448952
 20
55.7405459056
 30
0.0
 40
10.1261414083
 50
76.0058811666
 51
111.4417882712
  0
LINE
  8
0
  6
CONTINUOUS
 62
         7
  5
37
 10
10.7164757166
 20
65.1658514769
 30
0.0
 11
9.8189254377
 21
65.6789937757
 31
0.0
  0
ARC
  8
0
  6
CONTINUOUS
 62
         7
  5
38
 10
9.7951286734
 20
65.6373702485
 30
0.0
 40
0.0479458445
 50
60.2427804467
 51
240.2427804467
  0
LINE
  8
0
  6
CONTINUOUS
 62
         7
  5
39
 10
9.7713319091
 20
65.5957467213
 30
0.0
 11
10.6027722097
 21
65.1204004402
 31
0.0
  0
ARC
  8
0
  6
CONTINUOUS
 62
         7
  5
3A
 10
14.4181448952
 20
55.7405459056
 30
0.0
 40
10.1261414083
 50
112.1346461502
 51
142.7414308019
  0
LINE
  8
0
  6
CONTINUOUS
 62
         7
  5
3B
 10
5.4926059999
 20
62.0650679832
 30
0.0
 11
6.3586328479
 21
61.8710438771
 31
0.0
  0
ARC
  8
0
  6
CONTINUOUS
 62
         7
  5
3C
 10
5.4766907499
 20
61.9940302442
 30
0.0
 40
0.0727987331
 50
77.3720153888
 51
257.3720153888
  0
LINE
  8
0
  6
CONTINUOUS
 62
         7
  5
3D
 10
6.2630135051
 20
61.7432596111
 30
0.0
 11
5.4607754999
 21
61.9229925053
 31
0.0
  0
ARC
  8
0
  6
CONTINUOUS
 62
         7
  5
3E
 10
14.4181448952
 20
55.7405459056
 30
0.0
 40
10.1261414083
 50
143.6444845869
 51
158.69003902
  0
LINE
  8
0
  6
CONTINUOUS
 62
         7
  5
3F
 10
4.1542804639
 20
57.8203910224
 30
0.0
 11
4.9843474037
 21
59.4205193713
 31
0.0
  0
ARC
  8
0
  6
CONTINUOUS
 62
         7
  5
40
 10
14.4181448952
 20
55.7405459056
 30
0.0
 40
11.7511414083
 50
26.6929541157
 51
158.9498888875
  0
LINE
  8
0
  6
CONTINUOUS
 62
         7
  5
41
 10
3.6507143646
 20
61.6371105315
 30
0.0
 11
3.7714557086
 21
61.6694630771
 31
0.0
  0
LINE
  8
0
  6
CONTINUOUS
 62
         7
  5
42
 10
3.068371888
 20
63.8104437605
 30
0.0
 11
3.6507143646
 21
61.6371105315
 31
0.0
  0
ARC
  8
0
  6
CONTINUOUS
 62
         7
  5
43
 10
23.3616704491
 20
59.9135707056
 30
0.0
 40
5.0915929259
 50
76.6871277729
 51
98.3156905637
  0
ARC
  8
0
  6
CONTINUOUS
 62
         7
  5
44
 10
14.03532014
 20
59.5896179603
 30
0.0
 40
10.1261414083
 50
31.9731577878
 51
42.5862362465
  0
LINE
  8
0
  6
CONTINUOUS
 62
         7
  5
45
 10
21.1367592726
 20
67.7632282897
 30
0.0
 11
21.4907896406
 21
66.441968969
 31
0.0
  0
ARC
  8
0
  6
CONTINUOUS
 62
         7
  5
46
 10
21.1065373152
 20
67.7551303407
 30
0.0
 40
0.0312880726
 50
15.0
 51
195.0
  0
LINE
  8
0
  6
CONTINUOUS
 62
         7
  5
47
 10
21.3998391642
 20
66.5396251087
 30
0.0
 11
21.0763153578
 21
67.7470323916
 31
0.0
  0
ARC
  8
0
  6
CONTINUOUS
 62
         7
  5
48
 10
14.03532014
 20
59.5896179603
 30
0.0
 40
10.1261414083
 50
43.3413250449
 51
75.2992536016
  0
LINE
  8
0
  6
CONTINUOUS
 62
         7
  5
49
 10
15.740830371
 20
70.4410191897
 30
0.0
 11
16.6050365666
 21
69.3842745294
 31
0.0
  0
ARC
  8
0
  6
CONTINUOUS
 62
         7
  5
4A
 10
15.712162563
 20
70.4175746451
 30
0.0
 40
0.0370336318
 50
39.2763135274
 51
219.2763135274
  0
LINE
  8
0
  6
CONTINUOUS
 62
         7
  5
4B
 10
16.4840469214
 20
69.4152210955
 30
0.0
 11
15.683494755
 21
70.3941301006
 31
0.0
  0
ARC
  8
0
  6
CONTINUOUS
 62
         7
  5
4C
 10
14.03532014
 20
59.5896179603
 30
0.0
 40
10.1261414083
 50
76.0058811666
 51
111.4417882712
  0
LINE
  8
0
  6
CONTINUOUS
 62
         7
  5
4D
 10
10.3336509614
 20
69.0149235316
 30
0.0
 11
9.4361006825
 21
69.5280658305
 31
0.0
  0
ARC
  8
0
  6
CONTINUOUS
 62
         7
  5
4E
 10
9.4123039182
 20
69.4864423033
 30
0.0
 40
0.0479458445
 50
60.2427804467
 51
240.2427804467
  0
LINE
  8
0
  6
CONTINUOUS
 62
         7
  5
4F
 10
9.3885071539
 20
69.4448187761
 30
0.0
 11
10.2199474545
 21
68.969472495
 31
0.0
  0
ARC
  8
0
  6
CONTINUOUS
 62
         7
  5
50
 10
14.03532014
 20
59.5896179603
 30
0.0
 40
10.1261414083
 50
112.1346461502
 51
142.7414308019
  0
LINE
  8
0
  6
CONTINUOUS
 62
         7
  5
51
 10
5.1097812447
 20
65.9141400379
 30
0.0
 11
5.9758080926
 21
65.7201159318
 31
0.0
  0
ARC
  8
0
  6
CONTINUOUS
 62
         7
  5
52
 10
5.0938659947
 20
65.843102299
 30
0.0
 40
0.0727987331
 50
77.3720153888
 51
257.3720153888
  0
LINE
  8
0
  6
CONTINUOUS
 62
         7
  5
53
 10
5.8801887499
 20
65.5923316658
 30
0.0
 11
5.0779507447
 21
65.77206456
 31
0.0
  0
ARC
  8
0
  6
CONTINUOUS
 62
         7
  5
54
 10
14.03532014
 20
59.5896179603
 30
0.0
 40
10.1261414083
 50
143.6444845869
 51
158.69003902
  0
LINE
  8
0
  6
CONTINUOUS
 62
         7
  5
55
 10
3.7714557086
 20
61.6694630771
 30
0.0
 11
4.6015226484
 21
63.269591426
 31
0.0
  0
ARC
  8
0
  6
CONTINUOUS
 62
         7
  5
56
 10
14.03532014
 20
59.5896179603
 30
0.0
 40
11.7511414083
 50
26.6929541157
 51
158.9498888875
  0
LINE
  8
0
  6
CONTINUOUS
 62
         7
  5
57
 10
6.5471188053
 20
8.1463484449
 30
0.0
 11
6.6709029452
 21
8.1637451712
 31
0.0
  0
LINE
  8
0
  6
CONTINUOUS
 62
         7
  5
58
 10
6.2339797149
 20
10.3744516728
 30
0.0
 11
6.5471188053
 21
8.1463484449
 31
0.0
  0
ARC
  8
0
  6
CONTINUOUS
 62
         7
  5
59
 10
25.9011057453
 20
4.0334943476
 30
0.0
 40
5.0915929259
 50
69.6871277729
 51
91.3156905637
  0
ARC
  8
0
  6
CONTINUOUS
 62
         7
  5
5A
 10
16.6047927288
 20
4.8485524855
 30
0.0
 40
10.1261414083
 50
24.9731577878
 51
35.5862362465
  0
LINE
  8
0
  6
CONTINUOUS
 62
         7
  5
5B
 10
24.649411335
 20
12.0957902386
 30
0.0
 11
24.8397818085
 21
10.7412339361
 31
0.0
  0
ARC
  8
0
  6
CONTINUOUS
 62
         7
  5
5C
 10
24.6184277558
 20
12.0914357805
 30
0.0
 40
0.0312880726
 50
8.0000000001
 51
188.0
  0
LINE
  8
0
  6
CONTINUOUS
 62
         7
  5
5D
 10
24.7614105528
 20
10.8492462365
 30
0.0
 11
24.5874441766
 21
12.0870813224
 31
0.0
  0
ARC
  8
0
  6
CONTINUOUS
 62
         7
  5
5E
 10
16.6047927288
 20
4.8485524855
 30
0.0
 40
10.1261414083
 50
36.3413250449
 51
68.2992536016
  0
LINE
  8
0
  6
CONTINUOUS
 62
         7
  5
5F
 10
19.620043488
 20
15.4112196036
 30
0.0
 11
20.3490232438
 21
14.2570315161
 31
0.0
  0
ARC
  8
0
  6
CONTINUOUS
 62
         7
  5
60
 10
19.5887321943
 20
15.391443538
 30
0.0
 40
0.0370336318
 50
32.2763135274
 51
212.2763135274
  0
LINE
  8
0
  6
CONTINUOUS
 62
         7
  5
61
 10
20.2327068747
 20
14.3024923398
 30
0.0
 11
19.5574209005
 21
15.3716674725
 31
0.0
  0
ARC
  8
0
  6
CONTINUOUS
 62
         7
  5
62
 10
16.6047927288
 20
4.8485524855
 30
0.0
 40
10.1261414083
 50
69.0058811666
 51
104.4417882712
  0
LINE
  8
0
  6
CONTINUOUS
 62
         7
  5
63
 10
14.0793710323
 20
14.6547232506
 30
0.0
 11
13.2510472721
 21
15.2734245277
 31
0.0
  0
ARC
  8
0
  6
CONTINUOUS
 62
         7
  5
64
 10
13.2223552533
 20
15.235011352
 30
0.0
 40
0.0479458445
 50
53.2427804467
 51
233.2427804467
  0
LINE
  8
0
  6
CONTINUOUS
 62
         7
  5
65
 10
13.1936632346
 20
15.1965981763
 30
0.0
 11
13.9609759661
 21
14.6234679708
 31
0.0
  0
ARC
  8
0
  6
CONTINUOUS
 62
         7
  5
66
 10
16.6047927288
 20
4.8485524855
 30
0.0
 40
10.1261414083
 50
105.1346461502
 51
135.7414308019
  0
LINE
  8
0
  6
CONTINUOUS
 62
         7
  5
67
 10
8.5165487999
 20
12.2136820993
 30
0.0
 11
9.3524748246
 21
11.9155620961
 31
0.0
  0
ARC
  8
0
  6
CONTINUOUS
 62
         7
  5
68
 10
8.4920948571
 20
12.1451134459
 30
0.0
 40
0.0727987331
 50
70.3720153888
 51
250.3720153888
  0
LINE
  8
0
  6
CONTINUOUS
 62
         7
  5
69
 10
9.2419952293
 20
11.8003833811
 30
0.0
 11
8.4676409144
 21
12.0765447926
 31
0.0
  0
ARC
  8
0
  6
CONTINUOUS
 62
         7
  5
6A
 10
16.6047927288
 20
4.8485524855
 30
0.0
 40
10.1261414083
 50
136.6444845869
 51
151.69003902
  0
LINE
  8
0
  6
CONTINUOUS
 62
         7
  5
6B
 10
6.6709029452
 20
8.1637451712
 30
0.0
 11
7.6897892832
 21
9.6507866931
 31
0.0
  0
ARC
  8
0
  6
CONTINUOUS
 62
         7
  5
6C
 10
16.6047927288
 20
4.8485524855
 30
0.0
 40
11.7511414083
 50
19.6929541157
 51
151.9498888875
  0
LINE
  8
0
  6
CONTINUOUS
 62
         7
  5
6D
 10
6.5817023142
 20
11.9716272476
 30
0.0
 11
6.7054864541
 21
11.989023974
 31
0.0
  0
LINE
  8
0
  6
CONTINUOUS
 62
         7
  5
6E
 10
6.2685632238
 20
14.1997304755
 30
0.0
 11
6.5817023142
 21
11.9716272476
 31
0.0
  0
ARC
  8
0
  6
CONTINUOUS
 62
         7
  5
6F
 10
25.9356892541
 20
7.8587731503
 30
0.0
 40
5.0915929259
 50
69.6871277729
 51
91.3156905637
  0
ARC
  8
0
  6
CONTINUOUS
 62
         7
  5
70
 10
16.6393762376
 20
8.6738312882
 30
0.0
 40
10.1261414083
 50
24.9731577878
 51
35.5862362465
  0
LINE
  8
0
  6
CONTINUOUS
 62
         7
  5
71
 10
24.6839948439
 20
15.9210690414
 30
0.0
 11
24.8743653173
 21
14.5665127388
 31
0.0
  0
ARC
  8
0
  6
CONTINUOUS
 62
         7
  5
72
 10
24.6530112647
 20
15.9167145833
 30
0.0
 40
0.0312880726
 50
8.0
 51
188.0
  0
LINE
  8
0
  6
CONTINUOUS
 62
         7
  5
73
 10
24.7959940616
 20
14.6745250393
 30
0.0
 11
24.6220276854
 21
15.9123601252
 31
0.0
  0
ARC
  8
0
  6
CONTINUOUS
 62
         7
  5
74
 10
16.6393762376
 20
8.6738312882
 30
0.0
 40
10.1261414083
 50
36.3413250449
 51
68.2992536016
  0
LINE
  8
0
  6
CONTINUOUS
 62
         7
  5
75
 10
19.6546269969
 20
19.2364984063
 30
0.0
 11
20.3836067527
 21
18.0823103189
 31
0.0
  0
ARC
  8
0
  6
CONTINUOUS
 62
         7
  5
76
 10
19.6233157031
 20
19.2167223408
 30
0.0
 40
0.0370336318
 50
32.2763135274
 51
212.2763135274
  0
LINE
  8
0
  6
CONTINUOUS
 62
         7
  5
77
 10
20.2672903836
 20
18.1277711426
 30
0.0
 11
19.5920044094
 21
19.1969462752
 31
0.0
  0
ARC
  8
0
  6
CONTINUOUS
 62
         7
  5
78
 10
16.6393762376
 20
8.6738312882
 30
0.0
 40
10.1261414083
 50
69.0058811666
 51
104.4417882712
  0
LINE
  8
0
  6
CONTINUOUS
 62
         7
  5
79
 10
14.1139545411
 20
18.4800020533
 30
0.0
 11
13.2856307809
 21
19.0987033305
 31
0.0
  0
ARC
  8
0
  6
CONTINUOUS
 62
         7
  5
7A
 10
13.2569387622
 20
19.0602901548
 30
0.0
 40
0.0479458445
 50
53.2427804467
 51
233.2427804467
  0
LINE
  8
0
  6
CONTINUOUS
 62
         7
  5
7B
 10
13.2282467434
 20
19.0218769791
 30
0.0
 11
13.9955594749
 21
18.4487467735
 31
0.0
  0
ARC
  8
0
  6
CONTINUOUS
 62
         7
  5
7C
 10
16.6393762376
 20
8.6738312882
 30
0.0
 40
10.1261414083
 50
105.1346461502
 51
135.7414308019
  0
LINE
  8
0
  6
CONTINUOUS
 62
         7
  5
7D
 10
8.5511323087
 20
16.038960902
 30
0.0
 11
9.3870583334
 21
15.7408408988
 31
0.0
  0
ARC
  8
0
  6
CONTINUOUS
 62
         7
  5
7E
 10
8.526678366
 20
15.9703922486
 30
0.0
 40
0.0727987331
 50
70.3720153888
 51
250.3720153888
  0
LINE
  8
0
  6
CONTINUOUS
 62
         7
  5
7F
 10
9.2765787382
 20
15.6256621839
 30
0.0
 11
8.5022244232
 21
15.9018235953
 31
0.0
  0
ARC
  8
0
  6
CONTINUOUS
 62
         7
  5
80
 10
16.6393762376
 20
8.6738312882
 30
0.0
 40
10.1261414083
 50
136.6444845869
 51
151.69003902
  0
LINE
  8
0
  6
CONTINUOUS
 62
         7
  5
81
 10
6.7054864541
 20
11.989023974
 30
0.0
 11
7.724372792
 21
13.4760654958
 31
0.0
  0
ARC
  8
0
  6
CONTINUOUS
 62
         7
  5
82
 10
16.6393762376
 20
8.6738312882
 30
0.0
 40
11.7511414083
 50
19.6929541157
 51
151.9498888875
  0
LINE
  8
0
  6
CONTINUOUS
 62
         7
  5
83
 10
6.33066585
 20
15.8622999025
 30
0.0
 11
6.4544499899
 21
15.8796966289
 31
0.0
  0
LINE
  8
0
  6
CONTINUOUS
 62
         7
  5
84
 10
6.0175267596
 20
18.0904031304
 30
0.0
 11
6.33066585
 21
15.8622999025
 31
0.0
  0
ARC
  8
0
  6
CONTINUOUS
 62
         7
  5
85
 10
25.6846527899
 20
11.7494458052
 30
0.0
 40
5.0915929259
 50
69.6871277729
 51
91.3156905637
  0
ARC
  8
0
  6
CONTINUOUS
 62
         7
  5
86
 10
16.3883397734
 20
12.5645039431
 30
0.0
 40
10.1261414083
 50
24.9731577878
 51
35.5862362465
  0
LINE
  8
0
  6
CONTINUOUS
 62
         7
  5
87
 10
24.4329583797
 20
19.8117416963
 30
0.0
 11
24.6233288531
 21
18.4571853937
 31
0.0
  0
ARC
  8
0
  6
CONTINUOUS
 62
         7
  5
88
 10
24.4019748004
 20
19.8073872382
 30
0.0
 40
0.0312880726
 50
8.0
 51
188.0
  0
LINE
  8
0
  6
CONTINUOUS
 62
         7
  5
89
 10
24.5449575974
 20
18.5651976942
 30
0.0
 11
24.3709912212
 21
19.8030327801
 31
0.0
  0
ARC
  8
0
  6
CONTINUOUS
 62
         7
  5
8A
 10
16.3883397734
 20
12.5645039431
 30
0.0
 40
10.1261414083
 50
36.3413250449
 51
68.2992536016
  0
LINE
  8
0
  6
CONTINUOUS
 62
         7
  5
8B
 10
19.4035905327
 20
23.1271710613
 30
0.0
 11
20.1325702884
 21
21.9729829738
 31
0.0
  0
ARC
  8
0
  6
CONTINUOUS
 62
         7
  5
8C
 10
19.3722792389
 20
23.1073949957
 30
0.0
 40
0.0370336318
 50
32.2763135274
 51
212.2763135274
  0
LINE
  8
0
  6
CONTINUOUS
 62
         7
  5
8D
 10
20.0162539194
 20
22.0184437975
 30
0.0
 11
19.3409679451
 21
23.0876189301
 31
0.0
  0
ARC
  8
0
  6
CONTINUOUS
 62
         7
  5
8E
 10
16.3883397734
 20
12.5645039431
 30
0.0
 40
10.1261414083
 50
69.0058811666
 51
104.4417882712
  0
LINE
  8
0
  6
CONTINUOUS
 62
         7
  5
8F
 10
13.8629180769
 20
22.3706747083
 30
0.0
 11
13.0345943167
 21
22.9893759854
 31
0.0
  0
ARC
  8
0
  6
CONTINUOUS
 62
         7
  5
90
 10
13.005902298
 20
22.9509628097
 30
0.0
 40
0.0479458445
 50
53.2427804467
 51
233.2427804467
  0
LINE
  8
0
  6
CONTINUOUS
 62
         7
  5
91
 10
12.9772102792
 20
22.912549634
 30
0.0
 11
13.7445230107
 21
22.3394194285
 31
0.0
  0
ARC
  8
0
  6
CONTINUOUS
 62
         7
  5
92
 10
16.3883397734
 20
12.5645039431
 30
0.0
 40
10.1261414083
 50
105.1346461502
 51
135.7414308019
  0
LINE
  8
0
  6
CONTINUOUS
 62
         7
  5
93
 10
8.3000958445
 20
19.9296335569
 30
0.0
 11
9.1360218692
 21
19.6315135537
 31
0.0
  0
ARC
  8
0
  6
CONTINUOUS
 62
         7
  5
94
 10
8.2756419018
 20
19.8610649036
 30
0.0
 40
0.0727987331
 50
70.3720153888
 51
250.3720153888
  0
LINE
  8
0
  6
CONTINUOUS
 62
         7
  5
95
 10
9.025542274
 20
19.5163348388
 30
0.0
 11
8.251187959
 21
19.7924962502
 31
0.0
  0
ARC
  8
0
  6
CONTINUOUS
 62
         7
  5
96
 10
16.3883397734
 20
12.5645039431
 30
0.0
 40
10.1261414083
 50
136.6444845869
 51
151.69003902
  0
LINE
  8
0
  6
CONTINUOUS
 62
         7
  5
97
 10
6.4544499899
 20
15.8796966289
 30
0.0
 11
7.4733363278
 21
17.3667381507
 31
0.0
  0
ARC
  8
0
  6
CONTINUOUS
 62
         7
  5
98
 10
16.3883397734
 20
12.5645039431
 30
0.0
 40
11.7511414083
 50
19.6929541157
 51
151.9498888875
  0
LINE
  8
0
  6
CONTINUOUS
 62
         7
  5
99
 10
6.3182269821
 20
19.5362537395
 30
0.0
 11
6.442011122
 21
19.5536504658
 31
0.0
  0
LINE
  8
0
  6
CONTINUOUS
 62
         7
  5
9A
 10
6.0050878917
 20
21.7643569674
 30
0.0
 11
6.3182269821
 21
19.5362537395
 31
0.0
  0
ARC
  8
0
  6
CONTINUOUS
 62
         7
  5
9B
 10
25.672213922
 20
15.4233996422
 30
0.0
 40
5.0915929259
 50
69.6871277729
 51
91.3156905637
  0
ARC
  8
0
  6
CONTINUOUS
 62
         7
  5
9C
 10
16.3759009056
 20
16.2384577801
 30
0.0
 40
10.1261414083
 50
24.9731577878
 51
35.5862362465
  0
LINE
  8
0
  6
CONTINUOUS
 62
         7
  5
9D
 10
24.4205195118
 20
23.4856955332
 30
0.0
 11
24.6108899852
 21
22.1311392307
 31
0.0
  0
ARC
  8
0
  6
CONTINUOUS
 62
         7
  5
9E
 10
24.3895359326
 20
23.4813410751
 30
0.0
 40
0.0312880726
 50
8.0
 51
188.0
  0
LINE
  8
0
  6
CONTINUOUS
 62
         7
  5
9F
 10
24.5325187296
 20
22.2391515311
 30
0.0
 11
24.3585523534
 21
23.4769866171
 31
0.0
  0
ARC
  8
0
  6
CONTINUOUS
 62
         7
  5
A0
 10
16.3759009056
 20
16.2384577801
 30
0.0
 40
10.1261414083
 50
36.3413250449
 51
68.2992536016
  0
LINE
  8
0
  6
CONTINUOUS
 62
         7
  5
A1
 10
19.3911516648
 20
26.8011248982
 30
0.0
 11
20.1201314206
 21
25.6469368108
 31
0.0
  0
ARC
  8
0
  6
CONTINUOUS
 62
         7
  5
A2
 10
19.359840371
 20
26.7813488327
 30
0.0
 40
0.0370336318
 50
32.2763135274
 51
212.2763135274
  0
LINE
  8
0
  6
CONTINUOUS
 62
         7
  5
A3
 10
20.0038150515
 20
25.6923976344
 30
0.0
 11
19.3285290773
 21
26.7615727671
 31
0.0
  0
ARC
  8
0
  6
CONTINUOUS
 62
         7
  5
A4
 10
16.3759009056
 20
16.2384577801
 30
0.0
 40
10.1261414083
 50
69.0058811666
 51
104.4417882712
  0
LINE
  8
0
  6
CONTINUOUS
 62
         7
  5
A5
 10
13.8504792091
 20
26.0446285452
 30
0.0
 11
13.0221554489
 21
26.6633298223
 31
0.0
  0
ARC
  8
0
  6
CONTINUOUS
 62
         7
  5
A6
 10
12.9934634301
 20
26.6249166466
 30
0.0
 40
0.0479458445
 50
53.2427804467
 51
233.2427804467
  0
LINE
  8
0
  6
CONTINUOUS
 62
         7
  5
A7
 10
12.9647714114
 20
26.5865034709
 30
0.0
 11
13.7320841429
 21
26.0133732654
 31
0.0
  0
ARC
  8
0
  6
CONTINUOUS
 62
         7
  5
A8
 10
16.3759009056
 20
16.2384577801
 30
0.0
 40
10.1261414083
 50
105.1346461502
 51
135.7414308019
  0
LINE
  8
0
  6
CONTINUOUS
 62
         7
  5
A9
 10
8.2876569767
 20
23.6035873939
 30
0.0
 11
9.1235830014
 21
23.3054673907
 31
0.0
  0
ARC
  8
0
  6
CONTINUOUS
 62
         7
  5
AA
 10
8.2632030339
 20
23.5350187405
 30
0.0
 40
0.0727987331
 50
70.3720153888
 51
250.3720153888
  0
LINE
  8
0
  6
CONTINUOUS
 62
         7
  5
AB
 10
9.0131034061
 20
23.1902886758
 30
0.0
 11
8.2387490912
 21
23.4664500872
 31
0.0
  0
ARC
  8
0
  6
CONTINUOUS
 62
         7
  5
AC
 10
16.3759009056
 20
16.2384577801
 30
0.0
 40
10.1261414083
 50
136.6444845869
 51
151.69003902
  0
LINE
  8
0
  6
CONTINUOUS
 62
         7
  5
AD
 10
6.442011122
 20
19.5536504658
 30
0.0
 11
7.46089746
 21
21.0406919877
 31
0.0
  0
ARC
  8
0
  6
CONTINUOUS
 62
         7
  5
AE
 10
16.3759009056
 20
16.2384577801
 30
0.0
 40
11.7511414083
 50
19.6929541157
 51
151.9498888875
  0
LINE
  8
0
  6
CONTINUOUS
 62
         7
  5
AF
 10
35.2712738021
 20
64.0362738133
 30
0.0
 11
34.5706692894
 21
63.1795800271
 31
0.0
  0
ARC
  8
0
  6
CONTINUOUS
 62
         7
  5
B0
 10
34.5993370974
 20
63.1561354825
 30
0.0
 40
0.0370336318
 50
140.7236864726
 51
320.7236864726
  0
LINE
  8
0
  6
CONTINUOUS
 62
         7
  5
B1
 10
34.6280049054
 20
63.1326909379
 30
0.0
 11
35.3737810936
 21
64.0446202999
 31
0.0
  0
ARC
  8
0
  6
CONTINUOUS
 62
         7
  5
B2
 10
36.2761795204
 20
52.3281787976
 30
0.0
 40
11.7511414083
 50
62.4385360035
 51
94.4042167057
  0
LINE
  8
0
  6
CONTINUOUS
 62
         7
  5
B3
 10
40.8753989779
 20
62.2666266678
 30
0.0
 11
41.7134313274
 21
62.7457417173
 31
0.0
  0
ARC
  8
0
  6
CONTINUOUS
 62
         7
  5
B4
 10
40.8991957422
 20
62.2250031406
 30
0.0
 40
0.0479458445
 50
119.7572195533
 51
299.7572195533
  0
LINE
  8
0
  6
CONTINUOUS
 62
         7
  5
B5
 10
41.8138640675
 20
62.692703594
 30
0.0
 11
40.9229925065
 21
62.1833796134
 31
0.0
  0
ARC
  8
0
  6
CONTINUOUS
 62
         7
  5
B6
 10
36.2761795204
 20
52.3281787976
 30
0.0
 40
11.7511414083
 50
33.6749951142
 51
61.8847584024
  0
LINE
  8
0
  6
CONTINUOUS
 62
         7
  5
B7
 10
46.0554345904
 20
58.8439669059
 30
0.0
 11
45.2017184157
 21
58.6527008752
 31
0.0
  0
ARC
  8
0
  6
CONTINUOUS
 62
         7
  5
B8
 10
45.2176336657
 20
58.5816631363
 30
0.0
 40
0.0727987331
 50
102.6279846112
 51
282.6279846112
  0
LINE
  8
0
  6
CONTINUOUS
 62
         7
  5
B9
 10
45.2335489157
 20
58.5106253973
 30
0.0
 11
46.1408592703
 21
58.7138986341
 31
0.0
  0
ARC
  8
0
  6
CONTINUOUS
 62
         7
  5
BA
 10
36.2761795204
 20
52.3281787976
 30
0.0
 40
11.7511414083
 50
21.0501111125
 51
32.9162617761
  0
LINE
  8
0
  6
CONTINUOUS
 62
         7
  5
BB
 10
47.2431277724
 20
56.5490045978
 30
0.0
 11
46.572598715
 21
54.0465545686
 31
0.0
  0
LINE
  8
0
  6
CONTINUOUS
 62
         7
  5
BC
 10
46.572598715
 20
54.0465545686
 30
0.0
 11
46.2536986391
 21
54.0567192385
 31
0.0
  0
ARC
  8
0
  6
CONTINUOUS
 62
         7
  5
BD
 10
36.2761795204
 20
52.3281787976
 30
0.0
 40
10.1261414083
 50
9.8285675471
 51
148.0268422122
  0
ARC
  8
0
  6
CONTINUOUS
 62
         7
  5
BE
 10
26.9206108904
 20
52.1761775725
 30
0.0
 40
5.5669117521
 50
82.0952265888
 51
87.4390730974
  0
LINE
  8
0
  6
CONTINUOUS
 62
         7
  5
BF
 10
27.169350113
 20
57.7375294994
 30
0.0
 11
26.896630141
 21
59.4072590936
 31
0.0
  0
ARC
  8
0
  6
CONTINUOUS
 62
         7
  5
C0
 10
36.2761795204
 20
52.3281787976
 30
0.0
 40
11.7511414083
 50
124.8139865811
 51
142.9568437605
  0
LINE
  8
0
  6
CONTINUOUS
 62
         7
  5
C1
 10
29.5672883396
 20
61.9759818388
 30
0.0
 11
29.172444435
 21
60.5024043258
 31
0.0
  0
ARC
  8
0
  6
CONTINUOUS
 62
         7
  5
C2
 10
29.2049623452
 20
60.493691178
 30
0.0
 40
0.0336650179
 50
165.0
 51
344.9999999999
  0
LINE
  8
0
  6
CONTINUOUS
 62
         7
  5
C3
 10
29.2374802554
 20
60.4849780302
 30
0.0
 11
29.652771721
 21
62.0348668796
 31
0.0
  0
ARC
  8
0
  6
CONTINUOUS
 62
         7
  5
C4
 10
36.2761795204
 20
52.3281787976
 30
0.0
 40
11.7511414083
 50
94.9056736012
 51
124.3078709625
  0
LINE
  8
0
  6
CONTINUOUS
 62
         7
  5
C5
 10
12.6591261127
 20
46.9772770106
 30
0.0
 11
12.186585533
 21
45.9765391193
 31
0.0
  0
ARC
  8
0
  6
CONTINUOUS
 62
         7
  5
C6
 10
12.2200735332
 20
45.9607263484
 30
0.0
 40
0.0370336318
 50
154.7236864726
 51
334.7236864726
  0
LINE
  8
0
  6
CONTINUOUS
 62
         7
  5
C7
 10
12.2535615335
 20
45.9449135774
 30
0.0
 11
12.7565693017
 21
47.0101743292
 31
0.0
  0
ARC
  8
0
  6
CONTINUOUS
 62
         7
  5
C8
 10
16.4666263766
 20
35.8600711504
 30
0.0
 40
11.7511414083
 50
76.4385360035
 51
108.4042167057
  0
LINE
  8
0
  6
CONTINUOUS
 62
         7
  5
C9
 10
18.5249012124
 20
46.615956534
 30
0.0
 11
19.2221319985
 21
47.2835781935
 31
0.0
  0
ARC
  8
0
  6
CONTINUOUS
 62
         7
  5
CA
 10
18.5580607537
 20
46.5813263618
 30
0.0
 40
0.0479458445
 50
133.7572195533
 51
313.7572195533
  0
LINE
  8
0
  6
CONTINUOUS
 62
         7
  5
CB
 10
19.3324125404
 20
47.256412408
 30
0.0
 11
18.591220295
 21
46.5466961896
 31
0.0
  0
ARC
  8
0
  6
CONTINUOUS
 62
         7
  5
CC
 10
16.4666263766
 20
35.8600711504
 30
0.0
 40
11.7511414083
 50
47.6749951142
 51
75.8847584024
  0
LINE
  8
0
  6
CONTINUOUS
 62
         7
  5
CD
 10
24.3790839667
 20
44.5481284293
 30
0.0
 11
23.5969982516
 21
44.1560111818
 31
0.0
  0
ARC
  8
0
  6
CONTINUOUS
 62
         7
  5
CE
 10
23.6296263352
 20
44.0909338147
 30
0.0
 40
0.0727987331
 50
116.6279846112
 51
296.6279846112
  0
LINE
  8
0
  6
CONTINUOUS
 62
         7
  5
CF
 10
23.6622544187
 20
44.0258564477
 30
0.0
 11
24.4934375314
 21
44.4425898415
 31
0.0
  0
ARC
  8
0
  6
CONTINUOUS
 62
         7
  5
D0
 10
16.4666263766
 20
35.8600711504
 30
0.0
 40
11.7511414083
 50
35.0501111125
 51
46.9162617761
  0
LINE
  8
0
  6
CONTINUOUS
 62
         7
  5
D1
 10
26.0866992172
 20
42.6086652957
 30
0.0
 11
26.0414851932
 21
40.0183330665
 31
0.0
  0
LINE
  8
0
  6
CONTINUOUS
 62
         7
  5
D2
 10
26.0414851932
 20
40.0183330665
 30
0.0
 11
25.7295987562
 21
39.9510468914
 31
0.0
  0
ARC
  8
0
  6
CONTINUOUS
 62
         7
  5
D3
 10
16.4666263766
 20
35.8600711504
 30
0.0
 40
10.1261414083
 50
23.8285675471
 51
162.0268422122
  0
ARC
  8
0
  6
CONTINUOUS
 62
         7
  5
D4
 10
7.4257305425
 20
33.4492681139
 30
0.0
 40
5.5669117521
 50
96.0952265888
 51
101.4390730974
  0
LINE
  8
0
  6
CONTINUOUS
 62
         7
  5
D5
 10
6.3216683469
 20
38.9055995851
 30
0.0
 11
5.6531051751
 21
40.4597541418
 31
0.0
  0
ARC
  8
0
  6
CONTINUOUS
 62
         7
  5
D6
 10
16.4666263766
 20
35.8600711504
 30
0.0
 40
11.7511414083
 50
138.8139865811
 51
156.9568437605
  0
LINE
  8
0
  6
CONTINUOUS
 62
         7
  5
D7
 10
7.6230031357
 20
43.5982655374
 30
0.0
 11
7.5963784478
 21
42.0729381882
 31
0.0
  0
ARC
  8
0
  6
CONTINUOUS
 62
         7
  5
D8
 10
7.6300383383
 20
42.0723506527
 30
0.0
 40
0.0336650179
 50
179.0
 51
359.0
  0
LINE
  8
0
  6
CONTINUOUS
 62
         7
  5
D9
 10
7.6636982289
 20
42.0717631171
 30
0.0
 11
7.6917017147
 21
43.6760817424
 31
0.0
  0
ARC
  8
0
  6
CONTINUOUS
 62
         7
  5
DA
 10
16.4666263766
 20
35.8600711504
 30
0.0
 40
11.7511414083
 50
108.9056736012
 51
138.3078709625
  0
LINE
  8
0
  6
CONTINUOUS
 62
         7
  5
DB
 10
12.2811840287
 20
51.1787655829
 30
0.0
 11
11.8086434489
 21
50.1780276917
 31
0.0
  0
ARC
  8
0
  6
CONTINUOUS
 62
         7
  5
DC
 10
11.8421314492
 20
50.1622149207
 30
0.0
 40
0.0370336318
 50
154.7236864726
 51
334.7236864726
  0
LINE
  8
0
  6
CONTINUOUS
 62
         7
  5
DD
 10
11.8756194495
 20
50.1464021498
 30
0.0
 11
12.3786272177
 21
51.2116629015
 31
0.0
  0
ARC
  8
0
  6
CONTINUOUS
 62
         7
  5
DE
 10
16.0886842926
 20
40.0615597227
 30
0.0
 40
11.7511414083
 50
76.4385360035
 51
108.4042167057
  0
LINE
  8
0
  6
CONTINUOUS
 62
         7
  5
DF
 10
18.1469591283
 20
50.8174451064
 30
0.0
 11
18.8441899145
 21
51.4850667659
 31
0.0
  0
ARC
  8
0
  6
CONTINUOUS
 62
         7
  5
E0
 10
18.1801186696
 20
50.7828149342
 30
0.0
 40
0.0479458445
 50
133.7572195533
 51
313.7572195533
  0
LINE
  8
0
  6
CONTINUOUS
 62
         7
  5
E1
 10
18.9544704564
 20
51.4579009803
 30
0.0
 11
18.2132782109
 21
50.7481847619
 31
0.0
  0
ARC
  8
0
  6
CONTINUOUS
 62
         7
  5
E2
 10
16.0886842926
 20
40.0615597227
 30
0.0
 40
11.7511414083
 50
47.6749951142
 51
75.8847584024
  0
LINE
  8
0
  6
CONTINUOUS
 62
         7
  5
E3
 10
24.0011418827
 20
48.7496170016
 30
0.0
 11
23.2190561676
 21
48.3574997541
 31
0.0
  0
ARC
  8
0
  6
CONTINUOUS
 62
         7
  5
E4
 10
23.2516842511
 20
48.2924223871
 30
0.0
 40
0.0727987331
 50
116.6279846112
 51
296.6279846112
  0
LINE
  8
0
  6
CONTINUOUS
 62
         7
  5
E5
 10
23.2843123347
 20
48.22734502
 30
0.0
 11
24.1154954473
 21
48.6440784138
 31
0.0
  0
ARC
  8
0
  6
CONTINUOUS
 62
         7
  5
E6
 10
16.0886842926
 20
40.0615597227
 30
0.0
 40
11.7511414083
 50
35.0501111125
 51
46.9162617761
  0
LINE
  8
0
  6
CONTINUOUS
 62
         7
  5
E7
 10
25.7087571332
 20
46.810153868
 30
0.0
 11
25.6635431092
 21
44.2198216388
 31
0.0
  0
LINE
  8
0
  6
CONTINUOUS
 62
         7
  5
E8
 10
25.6635431092
 20
44.2198216388
 30
0.0
 11
25.3516566722
 21
44.1525354638
 31
0.0
  0
ARC
  8
0
  6
CONTINUOUS
 62
         7
  5
E9
 10
16.0886842926
 20
40.0615597227
 30
0.0
 40
10.1261414083
 50
23.8285675471
 51
162.0268422122
  0
ARC
  8
0
  6
CONTINUOUS
 62
         7
  5
EA
 10
7.0477884585
 20
37.6507566862
 30
0.0
 40
5.5669117521
 50
96.0952265888
 51
101.4390730974
  0
LINE
  8
0
  6
CONTINUOUS
 62
         7
  5
EB
 10
5.9437262629
 20
43.1070881574
 30
0.0
 11
5.2751630911
 21
44.6612427142
 31
0.0
  0
ARC
  8
0
  6
CONTINUOUS
 62
         7
  5
EC
 10
16.0886842926
 20
40.0615597227
 30
0.0
 40
11.7511414083
 50
138.8139865811
 51
156.9568437605
  0
LINE
  8
0
  6
CONTINUOUS
 62
         7
  5
ED
 10
7.2450610517
 20
47.7997541097
 30
0.0
 11
7.2184363638
 21
46.2744267606
 31
0.0
  0
ARC
  8
0
  6
CONTINUOUS
 62
         7
  5
EE
 10
7.2520962543
 20
46.273839225
 30
0.0
 40
0.0336650179
 50
179.0
 51
359.0
  0
LINE
  8
0
  6
CONTINUOUS
 62
         7
  5
EF
 10
7.2857561449
 20
46.2732516894
 30
0.0
 11
7.3137596306
 21
47.8775703147
 31
0.0
  0
ARC
  8
0
  6
CONTINUOUS
 62
         7
  5
F0
 10
16.0886842926
 20
40.0615597227
 30
0.0
 40
11.7511414083
 50
108.9056736012
 51
138.3078709625
  0
LINE
  8
0
  6
CONTINUOUS
 62
         7
  5
F1
 10
12.173585538
 20
55.3523140908
 30
0.0
 11
11.7010449582
 21
54.3515761996
 31
0.0
  0
ARC
  8
0
  6
CONTINUOUS
 62
         7
  5
F2
 10
11.7345329585
 20
54.3357634286
 30
0.0
 40
0.0370336318
 50
154.7236864726
 51
334.7236864726
  0
LINE
  8
0
  6
CONTINUOUS
 62
         7
  5
F3
 10
11.7680209587
 20
54.3199506577
 30
0.0
 11
12.271028727
 21
55.3852114095
 31
0.0
  0
ARC
  8
0
  6
CONTINUOUS
 62
         7
  5
F4
 10
15.9810858018
 20
44.2351082306
 30
0.0
 40
11.7511414083
 50
76.4385360035
 51
108.4042167057
  0
LINE
  8
0
  6
CONTINUOUS
 62
         7
  5
F5
 10
18.0393606376
 20
54.9909936143
 30
0.0
 11
18.7365914238
 21
55.6586152738
 31
0.0
  0
ARC
  8
0
  6
CONTINUOUS
 62
         7
  5
F6
 10
18.0725201789
 20
54.9563634421
 30
0.0
 40
0.0479458445
 50
133.7572195533
 51
313.7572195533
  0
LINE
  8
0
  6
CONTINUOUS
 62
         7
  5
F7
 10
18.8468719657
 20
55.6314494883
 30
0.0
 11
18.1056797202
 21
54.9217332698
 31
0.0
  0
ARC
  8
0
  6
CONTINUOUS
 62
         7
  5
F8
 10
15.9810858018
 20
44.2351082306
 30
0.0
 40
11.7511414083
 50
47.6749951142
 51
75.8847584024
  0
LINE
  8
0
  6
CONTINUOUS
 62
         7
  5
F9
 10
23.893543392
 20
52.9231655095
 30
0.0
 11
23.1114576769
 21
52.5310482621
 31
0.0
  0
ARC
  8
0
  6
CONTINUOUS
 62
         7
  5
FA
 10
23.1440857604
 20
52.465970895
 30
0.0
 40
0.0727987331
 50
116.6279846112
 51
296.6279846112
  0
LINE
  8
0
  6
CONTINUOUS
 62
         7
  5
FB
 10
23.1767138439
 20
52.4008935279
 30
0.0
 11
24.0078969566
 21
52.8176269217
 31
0.0
  0
ARC
  8
0
  6
CONTINUOUS
 62
         7
  5
FC
 10
15.9810858018
 20
44.2351082306
 30
0.0
 40
11.7511414083
 50
35.0501111125
 51
46.9162617761
  0
LINE
  8
0
  6
CONTINUOUS
 62
         7
  5
FD
 10
25.6011586425
 20
50.9837023759
 30
0.0
 11
25.5559446185
 21
48.3933701467
 31
0.0
  0
LINE
  8
0
  6
CONTINUOUS
 62
         7
  5
FE
 10
25.5559446185
 20
48.3933701467
 30
0.0
 11
25.2440581815
 21
48.3260839717
 31
0.0
  0
ARC
  8
0
  6
CONTINUOUS
 62
         7
  5
FF
 10
15.9810858018
 20
44.2351082306
 30
0.0
 40
10.1261414083
 50
23.8285675471
 51
162.0268422122
  0
ARC
  8
0
  6
CONTINUOUS
 62
         7
  5
100
 10
6.9401899678
 20
41.8243051941
 30
0.0
 40
5.5669117521
 50
96.0952265888
 51
101.4390730974
  0
LINE
  8
0
  6
CONTINUOUS
 62
         7
  5
101
 10
5.8361277721
 20
47.2806366654
 30
0.0
 11
5.1675646003
 21
48.8347912221
 31
0.0
  0
ARC
  8
0
  6
CONTINUOUS
 62
         7
  5
102
 10
15.9810858018
 20
44.2351082306
 30
0.0
 40
11.7511414083
 50
138.8139865811
 51
156.9568437605
  0
LINE
  8
0
  6
CONTINUOUS
 62
         7
  5
103
 10
7.137462561
 20
51.9733026176
 30
0.0
 11
7.110837873
 21
50.4479752685
 31
0.0
  0
ARC
  8
0
  6
CONTINUOUS
 62
         7
  5
104
 10
7.1444977636
 20
50.4473877329
 30
0.0
 40
0.0336650179
 50
179.0
 51
358.9999999999
  0
LINE
  8
0
  6
CONTINUOUS
 62
         7
  5
105
 10
7.1781576541
 20
50.4468001973
 30
0.0
 11
7.2061611399
 21
52.0511188227
 31
0.0
  0
ARC
  8
0
  6
CONTINUOUS
 62
         7
  5
106
 10
15.9810858018
 20
44.2351082306
 30
0.0
 40
11.7511414083
 50
108.9056736012
 51
138.3078709625
  0
LINE
  8
0
  6
CONTINUOUS
 62
         7
  5
107
 10
11.795527033
 20
59.361229431
 30
0.0
 11
11.3229864532
 21
58.3604915398
 31
0.0
  0
ARC
  8
0
  6
CONTINUOUS
 62
         7
  5
108
 10
11.3564744535
 20
58.3446787688
 30
0.0
 40
0.0370336318
 50
154.7236864726
 51
334.7236864726
  0
LINE
  8
0
  6
CONTINUOUS
 62
         7
  5
109
 10
11.3899624538
 20
58.3288659979
 30
0.0
 11
11.892970222
 21
59.3941267497
 31
0.0
  0
ARC
  8
0
  6
CONTINUOUS
 62
         7
  5
10A
 10
15.6030272969
 20
48.2440235708
 30
0.0
 40
11.7511414083
 50
76.4385360035
 51
108.4042167057
  0
LINE
  8
0
  6
CONTINUOUS
 62
         7
  5
10B
 10
17.6613021326
 20
58.9999089545
 30
0.0
 11
18.3585329188
 21
59.667530614
 31
0.0
  0
ARC
  8
0
  6
CONTINUOUS
 62
         7
  5
10C
 10
17.6944616739
 20
58.9652787823
 30
0.0
 40
0.0479458445
 50
133.7572195533
 51
313.7572195533
  0
LINE
  8
0
  6
CONTINUOUS
 62
         7
  5
10D
 10
18.4688134607
 20
59.6403648285
 30
0.0
 11
17.7276212152
 21
58.93064861
 31
0.0
  0
ARC
  8
0
  6
CONTINUOUS
 62
         7
  5
10E
 10
15.6030272969
 20
48.2440235708
 30
0.0
 40
11.7511414083
 50
47.6749951142
 51
75.8847584024
  0
LINE
  8
0
  6
CONTINUOUS
 62
         7
  5
10F
 10
23.515484887
 20
56.9320808497
 30
0.0
 11
22.7333991719
 21
56.5399636023
 31
0.0
  0
ARC
  8
0
  6
CONTINUOUS
 62
         7
  5
110
 10
22.7660272554
 20
56.4748862352
 30
0.0
 40
0.0727987331
 50
116.6279846112
 51
296.6279846112
  0
LINE
  8
0
  6
CONTINUOUS
 62
         7
  5
111
 10
22.798655339
 20
56.4098088681
 30
0.0
 11
23.6298384516
 21
56.8265422619
 31
0.0
  0
ARC
  8
0
  6
CONTINUOUS
 62
         7
  5
112
 10
15.6030272969
 20
48.2440235708
 30
0.0
 40
11.7511414083
 50
35.0501111125
 51
46.9162617761
  0
LINE
  8
0
  6
CONTINUOUS
 62
         7
  5
113
 10
25.2231001375
 20
54.9926177161
 30
0.0
 11
25.1778861135
 21
52.4022854869
 31
0.0
  0
LINE
  8
0
  6
CONTINUOUS
 62
         7
  5
114
 10
25.1778861135
 20
52.4022854869
 30
0.0
 11
24.8659996765
 21
52.3349993119
 31
0.0
  0
ARC
  8
0
  6
CONTINUOUS
 62
         7
  5
115
 10
15.6030272969
 20
48.2440235708
 30
0.0
 40
10.1261414083
 50
23.8285675471
 51
162.0268422122
  0
ARC
  8
0
  6
CONTINUOUS
 62
         7
  5
116
 10
6.5621314628
 20
45.8332205343
 30
0.0
 40
5.5669117521
 50
96.0952265888
 51
101.4390730974
  0
LINE
  8
0
  6
CONTINUOUS
 62
         7
  5
117
 10
5.4580692672
 20
51.2895520056
 30
0.0
 11
4.7895060954
 21
52.8437065623
 31
0.0
  0
ARC
  8
0
  6
CONTINUOUS
 62
         7
  5
118
 10
15.6030272969
 20
48.2440235708
 30
0.0
 40
11.7511414083
 50
138.8139865811
 51
156.9568437605
  0
LINE
  8
0
  6
CONTINUOUS
 62
         7
  5
119
 10
6.759404056
 20
55.9822179578
 30
0.0
 11
6.7327793681
 21
54.4568906087
 31
0.0
  0
ARC
  8
0
  6
CONTINUOUS
 62
         7
  5
11A
 10
6.7664392586
 20
54.4563030731
 30
0.0
 40
0.0336650179
 50
179.0
 51
359.0
  0
LINE
  8
0
  6
CONTINUOUS
 62
         7
  5
11B
 10
6.8000991492
 20
54.4557155375
 30
0.0
 11
6.8281026349
 21
56.0600341629
 31
0.0
  0
ARC
  8
0
  6
CONTINUOUS
 62
         7
  5
11C
 10
15.6030272969
 20
48.2440235708
 30
0.0
 40
11.7511414083
 50
108.9056736012
 51
138.3078709625
  0
CIRCLE
  8
0
  6
CONTINUOUS
 62
         7
  5
11D
 10
16.7192283073
 20
15.8629825495
 30
0.0
 40
13.5
  0
CIRCLE
  8
0
  6
CONTINUOUS
 62
         7
  5
11E
 10
16.7192283073
 20
15.8629825495
 30
0.0
 40
15.0
  0
CIRCLE
  8
0
  6
CONTINUOUS
 62
         7
  5
11F
 10
21.1227204772
 20
2.3104271923
 30
0.0
 40
0.14
  0
CIRCLE
  8
0
  6
CONTINUOUS
 62
         7
  5
120
 10
28.2477204772
 20
7.4870427043
 30
0.0
 40
0.14
  0
CIRCLE
  8
0
  6
CONTINUOUS
 62
         7
  5
121
 10
30.9692283073
 20
15.8629825495
 30
0.0
 40
0.14
  0
CIRCLE
  8
0
  6
CONTINUOUS
 62
         7
  5
122
 10
28.2477204772
 20
24.2389223946
 30
0.0
 40
0.14
  0
CIRCLE
  8
0
  6
CONTINUOUS
 62
         7
  5
123
 10
21.1227204772
 20
29.4155379067
 30
0.0
 40
0.14
  0
CIRCLE
  8
0
  6
CONTINUOUS
 62
         7
  5
124
 10
12.3157361375
 20
29.4155379067
 30
0.0
 40
0.14
  0
CIRCLE
  8
0
  6
CONTINUOUS
 62
         7
  5
125
 10
5.1907361375
 20
24.2389223946
 30
0.0
 40
0.14
  0
CIRCLE
  8
0
  6
CONTINUOUS
 62
         7
  5
126
 10
2.4692283073
 20
15.8629825495
 30
0.0
 40
0.14
  0
CIRCLE
  8
0
  6
CONTINUOUS
 62
         7
  5
127
 10
5.1907361375
 20
7.4870427043
 30
0.0
 40
0.14
  0
CIRCLE
  8
0
  6
CONTINUOUS
 62
         7
  5
128
 10
12.3157361375
 20
2.3104271923
 30
0.0
 40
0.14
  0
CIRCLE
  8
0
  6
CONTINUOUS
 62
         7
  5
129
 10
15.6533165715
 20
47.656187977
 30
0.0
 40
13.5
  0
CIRCLE
  8
0
  6
CONTINUOUS
 62
         7
  5
12A
 10
15.6533165715
 20
47.656187977
 30
0.0
 40
15.0
  0
CIRCLE
  8
0
  6
CONTINUOUS
 62
         7
  5
12B
 10
20.0568087413
 20
34.1036326198
 30
0.0
 40
0.14
  0
CIRCLE
  8
0
  6
CONTINUOUS
 62
         7
  5
12C
 10
27.1818087413
 20
39.2802481318
 30
0.0
 40
0.14
  0
CIRCLE
  8
0
  6
CONTINUOUS
 62
         7
  5
12D
 10
29.9033165715
 20
47.656187977
 30
0.0
 40
0.14
  0
CIRCLE
  8
0
  6
CONTINUOUS
 62
         7
  5
12E
 10
27.1818087413
 20
56.0321278222
 30
0.0
 40
0.14
  0
CIRCLE
  8
0
  6
CONTINUOUS
 62
         7
  5
12F
 10
20.0568087413
 20
61.2087433342
 30
0.0
 40
0.14
  0
CIRCLE
  8
0
  6
CONTINUOUS
 62
         7
  5
130
 10
11.2498244016
 20
61.2087433342
 30
0.0
 40
0.14
  0
CIRCLE
  8
0
  6
CONTINUOUS
 62
         7
  5
131
 10
4.1248244016
 20
56.0321278222
 30
0.0
 40
0.14
  0
CIRCLE
  8
0
  6
CONTINUOUS
 62
         7
  5
132
 10
1.4033165715
 20
47.656187977
 30
0.0
 40
0.14
  0
CIRCLE
  8
0
  6
CONTINUOUS
 62
         7
  5
133
 10
4.1248244016
 20
39.2802481318
 30
0.0
 40
0.14
  0
CIRCLE
  8
0
  6
CONTINUOUS
 62
         7
  5
134
 10
11.2498244016
 20
34.1036326198
 30
0.0
 40
0.14
  0
LINE
  8
0
  6
CONTINUOUS
 62
         7
  5
135
 10
28.8470327223
 20
25.2150610571
 30
0.0
 11
28.8535747502
 21
25.0902317286
 31
0.0
  0
LINE
  8
0
  6
CONTINUOUS
 62
         7
  5
136
 10
31.0939492147
 20
25.332816567
 30
0.0
 11
28.8470327223
 21
25.2150610571
 31
0.0
  0
ARC
  8
0
  6
CONTINUOUS
 62
         7
  5
137
 10
23.0630181696
 20
6.2931807343
 30
0.0
 40
5.0915929259
 50
334.6871277729
 51
356.3156905637
  0
ARC
  8
0
  6
CONTINUOUS
 62
         7
  5
138
 10
24.685201831
 20
15.4830814757
 30
0.0
 40
10.1261414083
 50
289.9731577878
 51
300.5862362465
  0
LINE
  8
0
  6
CONTINUOUS
 62
         7
  5
139
 10
31.2037269467
 20
6.8374366828
 30
0.0
 11
29.8377332599
 21
6.7658479871
 31
0.0
  0
ARC
  8
0
  6
CONTINUOUS
 62
         7
  5
13A
 10
31.2020894556
 20
6.8686818761
 30
0.0
 40
0.0312880726
 50
273.0
 51
93.0
  0
LINE
  8
0
  6
CONTINUOUS
 62
         7
  5
13B
 10
29.9521650459
 20
6.8345071242
 30
0.0
 11
31.2004519644
 21
6.8999270695
 31
0.0
  0
ARC
  8
0
  6
CONTINUOUS
 62
         7
  5
13C
 10
24.685201831
 20
15.4830814757
 30
0.0
 40
10.1261414083
 50
301.3413250449
 51
333.2992536016
  0
LINE
  8
0
  6
CONTINUOUS
 62
         7
  5
13D
 10
34.9448783923
 20
11.5587075579
 30
0.0
 11
33.7315475669
 21
10.9330959102
 31
0.0
  0
ARC
  8
0
  6
CONTINUOUS
 62
         7
  5
13E
 10
34.9279065397
 20
11.5916233004
 30
0.0
 40
0.0370336318
 50
297.2763135274
 51
117.2763135274
  0
LINE
  8
0
  6
CONTINUOUS
 62
         7
  5
13F
 10
33.786973038
 20
11.0450074885
 30
0.0
 11
34.9109346871
 21
11.6245390429
 31
0.0
  0
ARC
  8
0
  6
CONTINUOUS
 62
         7
  5
140
 10
24.685201831
 20
15.4830814757
 30
0.0
 40
10.1261414083
 50
334.0058811666
 51
9.4417882712
  0
LINE
  8
0
  6
CONTINUOUS
 62
         7
  5
141
 10
34.6741621595
 20
17.1442290837
 30
0.0
 11
35.3627022641
 21
17.9154774525
 31
0.0
  0
ARC
  8
0
  6
CONTINUOUS
 62
         7
  5
142
 10
35.3269359363
 20
17.9474082184
 30
0.0
 40
0.0479458445
 50
318.2427804467
 51
138.2427804467
  0
LINE
  8
0
  6
CONTINUOUS
 62
         7
  5
143
 10
35.2911696085
 20
17.9793389842
 30
0.0
 11
34.6533446254
 21
17.264897698
 31
0.0
  0
ARC
  8
0
  6
CONTINUOUS
 62
         7
  5
144
 10
24.685201831
 20
15.4830814757
 30
0.0
 40
10.1261414083
 50
10.1346461502
 51
40.7414308019
  0
LINE
  8
0
  6
CONTINUOUS
 62
         7
  5
145
 10
32.7272418102
 20
22.8986338526
 30
0.0
 11
32.3574004901
 21
22.0918716491
 31
0.0
  0
ARC
  8
0
  6
CONTINUOUS
 62
         7
  5
146
 10
32.6610653828
 20
22.9289708927
 30
0.0
 40
0.0727987331
 50
335.3720153888
 51
155.3720153887
  0
LINE
  8
0
  6
CONTINUOUS
 62
         7
  5
147
 10
32.2522889961
 20
22.2119693226
 30
0.0
 11
32.5948889554
 21
22.9593079327
 31
0.0
  0
ARC
  8
0
  6
CONTINUOUS
 62
         7
  5
148
 10
24.685201831
 20
15.4830814757
 30
0.0
 40
10.1261414083
 50
41.6444845869
 51
56.69003902
  0
LINE
  8
0
  6
CONTINUOUS
 62
         7
  5
149
 10
28.8535747502
 20
25.0902317286
 30
0.0
 11
30.2461558345
 21
23.9456183525
 31
0.0
  0
ARC
  8
0
  6
CONTINUOUS
 62
         7
  5
14A
 10
24.685201831
 20
15.4830814757
 30
0.0
 40
11.7511414083
 50
284.6929541157
 51
56.9498888875
  0
LINE
  8
0
  6
CONTINUOUS
 62
         7
  5
14B
 10
35.3685597422
 20
50.5927592798
 30
0.0
 11
34.4032223627
 21
51.1339567209
 31
0.0
  0
ARC
  8
0
  6
CONTINUOUS
 62
         7
  5
14C
 10
34.3851121061
 20
51.1016533389
 30
0.0
 40
0.0370336318
 50
60.7236864726
 51
240.7236864726
  0
LINE
  8
0
  6
CONTINUOUS
 62
         7
  5
14D
 10
34.3670018494
 20
51.0693499568
 30
0.0
 11
35.3945796314
 21
50.4932586566
 31
0.0
  0
ARC
  8
0
  6
CONTINUOUS
 62
         7
  5
14E
 10
24.0128370446
 20
47.5700309739
 30
0.0
 40
11.7511414083
 50
342.4385360035
 51
14.4042167057
  0
LINE
  8
0
  6
CONTINUOUS
 62
         7
  5
14F
 10
34.5989436375
 20
44.7664773559
 30
0.0
 11
35.2163026431
 21
44.0243740561
 31
0.0
  0
ARC
  8
0
  6
CONTINUOUS
 62
         7
  5
150
 10
34.56208473
 20
44.7358142682
 30
0.0
 40
0.0479458445
 50
39.7572195533
 51
219.7572195533
  0
LINE
  8
0
  6
CONTINUOUS
 62
         7
  5
151
 10
35.1815102504
 20
43.9162571414
 30
0.0
 11
34.5252258224
 21
44.7051511806
 31
0.0
  0
ARC
  8
0
  6
CONTINUOUS
 62
         7
  5
152
 10
24.0128370446
 20
47.5700309739
 30
0.0
 40
11.7511414083
 50
313.6749951142
 51
341.8847584024
  0
LINE
  8
0
  6
CONTINUOUS
 62
         7
  5
153
 10
32.1277855124
 20
39.0707994933
 30
0.0
 11
31.7911789845
 21
39.8783328034
 31
0.0
  0
ARC
  8
0
  6
CONTINUOUS
 62
         7
  5
154
 10
31.7239841226
 20
39.8503237679
 30
0.0
 40
0.0727987331
 50
22.6279846112
 51
202.6279846112
  0
LINE
  8
0
  6
CONTINUOUS
 62
         7
  5
155
 10
31.6567892607
 20
39.8223147324
 30
0.0
 11
32.0145271099
 21
38.964086488
 31
0.0
  0
ARC
  8
0
  6
CONTINUOUS
 62
         7
  5
156
 10
24.0128370446
 20
47.5700309739
 30
0.0
 40
11.7511414083
 50
301.0501111125
 51
312.9162617761
  0
LINE
  8
0
  6
CONTINUOUS
 62
         7
  5
157
 10
30.0739295952
 20
37.5026340169
 30
0.0
 11
27.493061256
 21
37.728430344
 31
0.0
  0
LINE
  8
0
  6
CONTINUOUS
 62
         7
  5
158
 10
27.493061256
 20
37.728430344
 30
0.0
 11
27.4476950847
 21
38.0442506876
 31
0.0
  0
ARC
  8
0
  6
CONTINUOUS
 62
         7
  5
159
 10
24.0128370446
 20
47.5700309739
 30
0.0
 40
10.1261414083
 50
289.8285675471
 51
68.0268422122
  0
ARC
  8
0
  6
CONTINUOUS
 62
         7
  5
15A
 10
22.238567616
 20
56.7570727588
 30
0.0
 40
5.5669117521
 50
2.0952265888
 51
7.4390730974
  0
LINE
  8
0
  6
CONTINUOUS
 62
         7
  5
15B
 10
27.7586232235
 20
57.4778310714
 30
0.0
 11
29.3556285472
 21
58.0363533155
 31
0.0
  0
ARC
  8
0
  6
CONTINUOUS
 62
         7
  5
15C
 10
24.0128370446
 20
47.5700309739
 30
0.0
 40
11.7511414083
 50
44.8139865811
 51
62.9568437605
  0
LINE
  8
0
  6
CONTINUOUS
 62
         7
  5
15D
 10
32.3490815514
 20
55.8523224395
 30
0.0
 11
30.8293270673
 21
55.9852837282
 31
0.0
  0
ARC
  8
0
  6
CONTINUOUS
 62
         7
  5
15E
 10
30.8263929677
 20
55.9517468159
 30
0.0
 40
0.0336650179
 50
85.0
 51
265.0
  0
LINE
  8
0
  6
CONTINUOUS
 62
         7
  5
15F
 10
30.823458868
 20
55.9182099035
 30
0.0
 11
32.4219160294
 21
55.7783630228
 31
0.0
  0
ARC
  8
0
  6
CONTINUOUS
 62
         7
  5
160
 10
24.0128370446
 20
47.5700309739
 30
0.0
 40
11.7511414083
 50
14.9056736012
 51
44.3078709625
  0
LINE
  8
0
  6
CONTINUOUS
 62
         7
  5
161
 10
38.8771184705
 20
50.5927592798
 30
0.0
 11
37.911781091
 21
51.1339567209
 31
0.0
  0
ARC
  8
0
  6
CONTINUOUS
 62
         7
  5
162
 10
37.8936708343
 20
51.1016533389
 30
0.0
 40
0.0370336318
 50
60.7236864726
 51
240.7236864726
  0
LINE
  8
0
  6
CONTINUOUS
 62
         7
  5
163
 10
37.8755605777
 20
51.0693499568
 30
0.0
 11
38.9031383597
 21
50.4932586566
 31
0.0
  0
ARC
  8
0
  6
CONTINUOUS
 62
         7
  5
164
 10
27.5213957728
 20
47.5700309739
 30
0.0
 40
11.7511414083
 50
342.4385360035
 51
14.4042167057
  0
LINE
  8
0
  6
CONTINUOUS
 62
         7
  5
165
 10
38.1075023658
 20
44.7664773559
 30
0.0
 11
38.7248613714
 21
44.0243740561
 31
0.0
  0
ARC
  8
0
  6
CONTINUOUS
 62
         7
  5
166
 10
38.0706434582
 20
44.7358142682
 30
0.0
 40
0.0479458445
 50
39.7572195533
 51
219.7572195533
  0
LINE
  8
0
  6
CONTINUOUS
 62
         7
  5
167
 10
38.6900689786
 20
43.9162571414
 30
0.0
 11
38.0337845507
 21
44.7051511806
 31
0.0
  0
ARC
  8
0
  6
CONTINUOUS
 62
         7
  5
168
 10
27.5213957728
 20
47.5700309739
 30
0.0
 40
11.7511414083
 50
313.6749951142
 51
341.8847584024
  0
LINE
  8
0
  6
CONTINUOUS
 62
         7
  5
169
 10
35.6363442407
 20
39.0707994933
 30
0.0
 11
35.2997377128
 21
39.8783328034
 31
0.0
  0
ARC
  8
0
  6
CONTINUOUS
 62
         7
  5
16A
 10
35.2325428509
 20
39.8503237679
 30
0.0
 40
0.0727987331
 50
22.6279846113
 51
202.6279846112
  0
LINE
  8
0
  6
CONTINUOUS
 62
         7
  5
16B
 10
35.165347989
 20
39.8223147324
 30
0.0
 11
35.5230858382
 21
38.964086488
 31
0.0
  0
ARC
  8
0
  6
CONTINUOUS
 62
         7
  5
16C
 10
27.5213957728
 20
47.5700309739
 30
0.0
 40
11.7511414083
 50
301.0501111125
 51
312.9162617761
  0
LINE
  8
0
  6
CONTINUOUS
 62
         7
  5
16D
 10
33.5824883235
 20
37.5026340169
 30
0.0
 11
31.0016199843
 21
37.728430344
 31
0.0
  0
LINE
  8
0
  6
CONTINUOUS
 62
         7
  5
16E
 10
31.0016199843
 20
37.728430344
 30
0.0
 11
30.956253813
 21
38.0442506876
 31
0.0
  0
ARC
  8
0
  6
CONTINUOUS
 62
         7
  5
16F
 10
27.5213957728
 20
47.5700309739
 30
0.0
 40
10.1261414083
 50
289.8285675471
 51
68.0268422122
  0
ARC
  8
0
  6
CONTINUOUS
 62
         7
  5
170
 10
25.7471263442
 20
56.7570727588
 30
0.0
 40
5.5669117521
 50
2.0952265888
 51
7.4390730974
  0
LINE
  8
0
  6
CONTINUOUS
 62
         7
  5
171
 10
31.2671819518
 20
57.4778310714
 30
0.0
 11
32.8641872755
 21
58.0363533155
 31
0.0
  0
ARC
  8
0
  6
CONTINUOUS
 62
         7
  5
172
 10
27.5213957728
 20
47.5700309739
 30
0.0
 40
11.7511414083
 50
44.8139865811
 51
62.9568437605
  0
LINE
  8
0
  6
CONTINUOUS
 62
         7
  5
173
 10
35.8576402796
 20
55.8523224395
 30
0.0
 11
34.3378857956
 21
55.9852837282
 31
0.0
  0
ARC
  8
0
  6
CONTINUOUS
 62
         7
  5
174
 10
34.334951696
 20
55.9517468159
 30
0.0
 40
0.0336650179
 50
85.0
 51
265.0
  0
LINE
  8
0
  6
CONTINUOUS
 62
         7
  5
175
 10
34.3320175963
 20
55.9182099035
 30
0.0
 11
35.9304747577
 21
55.7783630228
 31
0.0
  0
ARC
  8
0
  6
CONTINUOUS
 62
         7
  5
176
 10
27.5213957728
 20
47.5700309739
 30
0.0
 40
11.7511414083
 50
14.9056736012
 51
44.3078709625
  0
LINE
  8
0
  6
CONTINUOUS
 62
         7
  5
177
 10
42.5703381845
 20
50.5927592798
 30
0.0
 11
41.605000805
 21
51.1339567209
 31
0.0
  0
ARC
  8
0
  6
CONTINUOUS
 62
         7
  5
178
 10
41.5868905483
 20
51.1016533389
 30
0.0
 40
0.0370336318
 50
60.7236864726
 51
240.7236864726
  0
LINE
  8
0
  6
CONTINUOUS
 62
         7
  5
179
 10
41.5687802917
 20
51.0693499568
 30
0.0
 11
42.5963580736
 21
50.4932586566
 31
0.0
  0
ARC
  8
0
  6
CONTINUOUS
 62
         7
  5
17A
 10
31.2146154868
 20
47.5700309739
 30
0.0
 40
11.7511414083
 50
342.4385360035
 51
14.4042167057
  0
LINE
  8
0
  6
CONTINUOUS
 62
         7
  5
17B
 10
41.8007220797
 20
44.7664773559
 30
0.0
 11
42.4180810854
 21
44.0243740561
 31
0.0
  0
ARC
  8
0
  6
CONTINUOUS
 62
         7
  5
17C
 10
41.7638631722
 20
44.7358142682
 30
0.0
 40
0.0479458445
 50
39.7572195533
 51
219.7572195533
  0
LINE
  8
0
  6
CONTINUOUS
 62
         7
  5
17D
 10
42.3832886926
 20
43.9162571414
 30
0.0
 11
41.7270042646
 21
44.7051511806
 31
0.0
  0
ARC
  8
0
  6
CONTINUOUS
 62
         7
  5
17E
 10
31.2146154868
 20
47.5700309739
 30
0.0
 40
11.7511414083
 50
313.6749951142
 51
341.8847584024
  0
LINE
  8
0
  6
CONTINUOUS
 62
         7
  5
17F
 10
39.3295639547
 20
39.0707994933
 30
0.0
 11
38.9929574268
 21
39.8783328034
 31
0.0
  0
ARC
  8
0
  6
CONTINUOUS
 62
         7
  5
180
 10
38.9257625649
 20
39.8503237679
 30
0.0
 40
0.0727987331
 50
22.6279846113
 51
202.6279846112
  0
LINE
  8
0
  6
CONTINUOUS
 62
         7
  5
181
 10
38.8585677029
 20
39.8223147324
 30
0.0
 11
39.2163055521
 21
38.964086488
 31
0.0
  0
ARC
  8
0
  6
CONTINUOUS
 62
         7
  5
182
 10
31.2146154868
 20
47.5700309739
 30
0.0
 40
11.7511414083
 50
301.0501111125
 51
312.9162617761
  0
LINE
  8
0
  6
CONTINUOUS
 62
         7
  5
183
 10
37.2757080374
 20
37.5026340169
 30
0.0
 11
34.6948396982
 21
37.728430344
 31
0.0
  0
LINE
  8
0
  6
CONTINUOUS
 62
         7
  5
184
 10
34.6948396982
 20
37.728430344
 30
0.0
 11
34.649473527
 21
38.0442506876
 31
0.0
  0
ARC
  8
0
  6
CONTINUOUS
 62
         7
  5
185
 10
31.2146154868
 20
47.5700309739
 30
0.0
 40
10.1261414083
 50
289.8285675471
 51
68.0268422122
  0
ARC
  8
0
  6
CONTINUOUS
 62
         7
  5
186
 10
29.4403460582
 20
56.7570727588
 30
0.0
 40
5.5669117521
 50
2.0952265888
 51
7.4390730974
  0
LINE
  8
0
  6
CONTINUOUS
 62
         7
  5
187
 10
34.9604016658
 20
57.4778310714
 30
0.0
 11
36.5574069894
 21
58.0363533155
 31
0.0
  0
ARC
  8
0
  6
CONTINUOUS
 62
         7
  5
188
 10
31.2146154868
 20
47.5700309739
 30
0.0
 40
11.7511414083
 50
44.8139865811
 51
62.9568437605
  0
LINE
  8
0
  6
CONTINUOUS
 62
         7
  5
189
 10
39.5508599936
 20
55.8523224395
 30
0.0
 11
38.0311055096
 21
55.9852837282
 31
0.0
  0
ARC
  8
0
  6
CONTINUOUS
 62
         7
  5
18A
 10
38.0281714099
 20
55.9517468159
 30
0.0
 40
0.0336650179
 50
85.0
 51
265.0
  0
LINE
  8
0
  6
CONTINUOUS
 62
         7
  5
18B
 10
38.0252373103
 20
55.9182099035
 30
0.0
 11
39.6236944716
 21
55.7783630228
 31
0.0
  0
ARC
  8
0
  6
CONTINUOUS
 62
         7
  5
18C
 10
31.2146154868
 20
47.5700309739
 30
0.0
 40
11.7511414083
 50
14.9056736012
 51
44.3078709625
  0
LINE
  8
0
  6
CONTINUOUS
 62
         7
  5
18D
 10
46.540549377
 20
50.4080982941
 30
0.0
 11
45.5752119975
 21
50.9492957352
 31
0.0
  0
ARC
  8
0
  6
CONTINUOUS
 62
         7
  5
18E
 10
45.5571017408
 20
50.9169923532
 30
0.0
 40
0.0370336318
 50
60.7236864726
 51
240.7236864726
  0
LINE
  8
0
  6
CONTINUOUS
 62
         7
  5
18F
 10
45.5389914842
 20
50.8846889712
 30
0.0
 11
46.5665692661
 21
50.3085976709
 31
0.0
  0
ARC
  8
0
  6
CONTINUOUS
 62
         7
  5
190
 10
35.1848266793
 20
47.3853699882
 30
0.0
 40
11.7511414083
 50
342.4385360035
 51
14.4042167057
  0
LINE
  8
0
  6
CONTINUOUS
 62
         7
  5
191
 10
45.7709332722
 20
44.5818163702
 30
0.0
 11
46.3882922779
 21
43.8397130704
 31
0.0
  0
ARC
  8
0
  6
CONTINUOUS
 62
         7
  5
192
 10
45.7340743647
 20
44.5511532825
 30
0.0
 40
0.0479458445
 50
39.7572195533
 51
219.7572195533
  0
LINE
  8
0
  6
CONTINUOUS
 62
         7
  5
193
 10
46.3534998851
 20
43.7315961557
 30
0.0
 11
45.6972154572
 21
44.5204901949
 31
0.0
  0
ARC
  8
0
  6
CONTINUOUS
 62
         7
  5
194
 10
35.1848266793
 20
47.3853699882
 30
0.0
 40
11.7511414083
 50
313.6749951142
 51
341.8847584024
  0
LINE
  8
0
  6
CONTINUOUS
 62
         7
  5
195
 10
43.2997751472
 20
38.8861385076
 30
0.0
 11
42.9631686193
 21
39.6936718177
 31
0.0
  0
ARC
  8
0
  6
CONTINUOUS
 62
         7
  5
196
 10
42.8959737574
 20
39.6656627822
 30
0.0
 40
0.0727987331
 50
22.6279846112
 51
202.6279846112
  0
LINE
  8
0
  6
CONTINUOUS
 62
         7
  5
197
 10
42.8287788955
 20
39.6376537467
 30
0.0
 11
43.1865167446
 21
38.7794255023
 31
0.0
  0
ARC
  8
0
  6
CONTINUOUS
 62
         7
  5
198
 10
35.1848266793
 20
47.3853699882
 30
0.0
 40
11.7511414083
 50
301.0501111125
 51
312.9162617761
  0
LINE
  8
0
  6
CONTINUOUS
 62
         7
  5
199
 10
41.24591923
 20
37.3179730312
 30
0.0
 11
38.6650508907
 21
37.5437693583
 31
0.0
  0
LINE
  8
0
  6
CONTINUOUS
 62
         7
  5
19A
 10
38.6650508907
 20
37.5437693583
 30
0.0
 11
38.6196847195
 21
37.8595897019
 31
0.0
  0
ARC
  8
0
  6
CONTINUOUS
 62
         7
  5
19B
 10
35.1848266793
 20
47.3853699882
 30
0.0
 40
10.1261414083
 50
289.8285675471
 51
68.0268422122
  0
ARC
  8
0
  6
CONTINUOUS
 62
         7
  5
19C
 10
33.4105572507
 20
56.5724117731
 30
0.0
 40
5.5669117521
 50
2.0952265888
 51
7.4390730974
  0
LINE
  8
0
  6
CONTINUOUS
 62
         7
  5
19D
 10
38.9306128583
 20
57.2931700858
 30
0.0
 11
40.5276181819
 21
57.8516923298
 31
0.0
  0
ARC
  8
0
  6
CONTINUOUS
 62
         7
  5
19E
 10
35.1848266793
 20
47.3853699882
 30
0.0
 40
11.7511414083
 50
44.8139865811
 51
62.9568437605
  0
LINE
  8
0
  6
CONTINUOUS
 62
         7
  5
19F
 10
43.5210711861
 20
55.6676614538
 30
0.0
 11
42.0013167021
 21
55.8006227425
 31
0.0
  0
ARC
  8
0
  6
CONTINUOUS
 62
         7
  5
1A0
 10
41.9983826024
 20
55.7670858302
 30
0.0
 40
0.0336650179
 50
85.0
 51
265.0
  0
LINE
  8
0
  6
CONTINUOUS
 62
         7
  5
1A1
 10
41.9954485028
 20
55.7335489178
 30
0.0
 11
43.5939056642
 21
55.5937020371
 31
0.0
  0
ARC
  8
0
  6
CONTINUOUS
 62
         7
  5
1A2
 10
35.1848266793
 20
47.3853699882
 30
0.0
 40
11.7511414083
 50
14.9056736012
 51
44.3078709625
  0
LINE
  8
0
  6
CONTINUOUS
 62
         7
  5
1A3
 10
32.285765518
 20
24.9356618796
 30
0.0
 11
32.2923075459
 21
24.8108325511
 31
0.0
  0
LINE
  8
0
  6
CONTINUOUS
 62
         7
  5
1A4
 10
34.5326820104
 20
25.0534173895
 30
0.0
 11
32.285765518
 21
24.9356618796
 31
0.0
  0
ARC
  8
0
  6
CONTINUOUS
 62
         7
  5
1A5
 10
26.5017509653
 20
6.0137815567
 30
0.0
 40
5.0915929259
 50
334.6871277729
 51
356.3156905637
  0
ARC
  8
0
  6
CONTINUOUS
 62
         7
  5
1A6
 10
28.1239346267
 20
15.2036822982
 30
0.0
 40
10.1261414083
 50
289.9731577878
 51
300.5862362465
  0
LINE
  8
0
  6
CONTINUOUS
 62
         7
  5
1A7
 10
34.6424597425
 20
6.5580375052
 30
0.0
 11
33.2764660556
 21
6.4864488096
 31
0.0
  0
ARC
  8
0
  6
CONTINUOUS
 62
         7
  5
1A8
 10
34.6408222513
 20
6.5892826986
 30
0.0
 40
0.0312880726
 50
273.0
 51
93.0
  0
LINE
  8
0
  6
CONTINUOUS
 62
         7
  5
1A9
 10
33.3908978416
 20
6.5551079467
 30
0.0
 11
34.6391847601
 21
6.620527892
 31
0.0
  0
ARC
  8
0
  6
CONTINUOUS
 62
         7
  5
1AA
 10
28.1239346267
 20
15.2036822982
 30
0.0
 40
10.1261414083
 50
301.3413250449
 51
333.2992536016
  0
LINE
  8
0
  6
CONTINUOUS
 62
         7
  5
1AB
 10
38.383611188
 20
11.2793083803
 30
0.0
 11
37.1702803626
 21
10.6536967326
 31
0.0
  0
ARC
  8
0
  6
CONTINUOUS
 62
         7
  5
1AC
 10
38.3666393354
 20
11.3122241228
 30
0.0
 40
0.0370336318
 50
297.2763135274
 51
117.2763135274
  0
LINE
  8
0
  6
CONTINUOUS
 62
         7
  5
1AD
 10
37.2257058337
 20
10.7656083109
 30
0.0
 11
38.3496674828
 21
11.3451398654
 31
0.0
  0
ARC
  8
0
  6
CONTINUOUS
 62
         7
  5
1AE
 10
28.1239346267
 20
15.2036822982
 30
0.0
 40
10.1261414083
 50
334.0058811666
 51
9.4417882712
  0
LINE
  8
0
  6
CONTINUOUS
 62
         7
  5
1AF
 10
38.1128949552
 20
16.8648299061
 30
0.0
 11
38.8014350598
 21
17.636078275
 31
0.0
  0
ARC
  8
0
  6
CONTINUOUS
 62
         7
  5
1B0
 10
38.765668732
 20
17.6680090408
 30
0.0
 40
0.0479458445
 50
318.2427804467
 51
138.2427804467
  0
LINE
  8
0
  6
CONTINUOUS
 62
         7
  5
1B1
 10
38.7299024042
 20
17.6999398066
 30
0.0
 11
38.0920774211
 21
16.9854985205
 31
0.0
  0
ARC
  8
0
  6
CONTINUOUS
 62
         7
  5
1B2
 10
28.1239346267
 20
15.2036822982
 30
0.0
 40
10.1261414083
 50
10.1346461502
 51
40.7414308019
  0
LINE
  8
0
  6
CONTINUOUS
 62
         7
  5
1B3
 10
36.1659746059
 20
22.6192346751
 30
0.0
 11
35.7961332858
 21
21.8124724716
 31
0.0
  0
ARC
  8
0
  6
CONTINUOUS
 62
         7
  5
1B4
 10
36.0997981785
 20
22.6495717151
 30
0.0
 40
0.0727987331
 50
335.3720153888
 51
155.3720153887
  0
LINE
  8
0
  6
CONTINUOUS
 62
         7
  5
1B5
 10
35.6910217918
 20
21.9325701451
 30
0.0
 11
36.0336217511
 21
22.6799087551
 31
0.0
  0
ARC
  8
0
  6
CONTINUOUS
 62
         7
  5
1B6
 10
28.1239346267
 20
15.2036822982
 30
0.0
 40
10.1261414083
 50
41.6444845869
 51
56.69003902
  0
LINE
  8
0
  6
CONTINUOUS
 62
         7
  5
1B7
 10
32.2923075459
 20
24.8108325511
 30
0.0
 11
33.6848886302
 21
23.6662191749
 31
0.0
  0
ARC
  8
0
  6
CONTINUOUS
 62
         7
  5
1B8
 10
28.1239346267
 20
15.2036822982
 30
0.0
 40
11.7511414083
 50
284.6929541157
 51
56.9498888875
  0
LINE
  8
0
  6
CONTINUOUS
 62
         7
  5
1B9
 10
35.7943242463
 20
24.7510008939
 30
0.0
 11
35.8008662741
 21
24.6261715654
 31
0.0
  0
LINE
  8
0
  6
CONTINUOUS
 62
         7
  5
1BA
 10
38.0412407387
 20
24.8687564038
 30
0.0
 11
35.7943242463
 21
24.7510008939
 31
0.0
  0
ARC
  8
0
  6
CONTINUOUS
 62
         7
  5
1BB
 10
30.0103096936
 20
5.829120571
 30
0.0
 40
5.0915929259
 50
334.6871277729
 51
356.3156905637
  0
ARC
  8
0
  6
CONTINUOUS
 62
         7
  5
1BC
 10
31.632493355
 20
15.0190213125
 30
0.0
 40
10.1261414083
 50
289.9731577878
 51
300.5862362465
  0
LINE
  8
0
  6
CONTINUOUS
 62
         7
  5
1BD
 10
38.1510184707
 20
6.3733765195
 30
0.0
 11
36.7850247839
 21
6.3017878239
 31
0.0
  0
ARC
  8
0
  6
CONTINUOUS
 62
         7
  5
1BE
 10
38.1493809795
 20
6.4046217129
 30
0.0
 40
0.0312880726
 50
273.0
 51
93.0
  0
LINE
  8
0
  6
CONTINUOUS
 62
         7
  5
1BF
 10
36.8994565699
 20
6.370446961
 30
0.0
 11
38.1477434883
 21
6.4358669063
 31
0.0
  0
ARC
  8
0
  6
CONTINUOUS
 62
         7
  5
1C0
 10
31.632493355
 20
15.0190213125
 30
0.0
 40
10.1261414083
 50
301.3413250449
 51
333.2992536016
  0
LINE
  8
0
  6
CONTINUOUS
 62
         7
  5
1C1
 10
41.8921699163
 20
11.0946473946
 30
0.0
 11
40.6788390909
 21
10.4690357469
 31
0.0
  0
ARC
  8
0
  6
CONTINUOUS
 62
         7
  5
1C2
 10
41.8751980637
 20
11.1275631371
 30
0.0
 40
0.0370336318
 50
297.2763135274
 51
117.2763135274
  0
LINE
  8
0
  6
CONTINUOUS
 62
         7
  5
1C3
 10
40.734264562
 20
10.5809473252
 30
0.0
 11
41.8582262111
 21
11.1604788797
 31
0.0
  0
ARC
  8
0
  6
CONTINUOUS
 62
         7
  5
1C4
 10
31.632493355
 20
15.0190213125
 30
0.0
 40
10.1261414083
 50
334.0058811666
 51
9.4417882712
  0
LINE
  8
0
  6
CONTINUOUS
 62
         7
  5
1C5
 10
41.6214536835
 20
16.6801689204
 30
0.0
 11
42.309993788
 21
17.4514172893
 31
0.0
  0
ARC
  8
0
  6
CONTINUOUS
 62
         7
  5
1C6
 10
42.2742274603
 20
17.4833480551
 30
0.0
 40
0.0479458445
 50
318.2427804467
 51
138.2427804467
  0
LINE
  8
0
  6
CONTINUOUS
 62
         7
  5
1C7
 10
42.2384611325
 20
17.5152788209
 30
0.0
 11
41.6006361494
 21
16.8008375348
 31
0.0
  0
ARC
  8
0
  6
CONTINUOUS
 62
         7
  5
1C8
 10
31.632493355
 20
15.0190213125
 30
0.0
 40
10.1261414083
 50
10.1346461502
 51
40.7414308019
  0
LINE
  8
0
  6
CONTINUOUS
 62
         7
  5
1C9
 10
39.6745333341
 20
22.4345736894
 30
0.0
 11
39.304692014
 21
21.6278114859
 31
0.0
  0
ARC
  8
0
  6
CONTINUOUS
 62
         7
  5
1CA
 10
39.6083569068
 20
22.4649107294
 30
0.0
 40
0.0727987331
 50
335.3720153888
 51
155.3720153888
  0
LINE
  8
0
  6
CONTINUOUS
 62
         7
  5
1CB
 10
39.19958052
 20
21.7479091594
 30
0.0
 11
39.5421804794
 21
22.4952477694
 31
0.0
  0
ARC
  8
0
  6
CONTINUOUS
 62
         7
  5
1CC
 10
31.632493355
 20
15.0190213125
 30
0.0
 40
10.1261414083
 50
41.6444845869
 51
56.69003902
  0
LINE
  8
0
  6
CONTINUOUS
 62
         7
  5
1CD
 10
35.8008662741
 20
24.6261715654
 30
0.0
 11
37.1934473585
 21
23.4815581892
 31
0.0
  0
ARC
  8
0
  6
CONTINUOUS
 62
         7
  5
1CE
 10
31.632493355
 20
15.0190213125
 30
0.0
 40
11.7511414083
 50
284.6929541157
 51
56.9498888875
  0
LINE
  8
0
  6
CONTINUOUS
 62
         7
  5
1CF
 10
39.5798744531
 20
24.658670401
 30
0.0
 11
39.586416481
 21
24.5338410725
 31
0.0
  0
LINE
  8
0
  6
CONTINUOUS
 62
         7
  5
1D0
 10
41.8267909455
 20
24.7764259109
 30
0.0
 11
39.5798744531
 21
24.658670401
 31
0.0
  0
ARC
  8
0
  6
CONTINUOUS
 62
         7
  5
1D1
 10
33.7958599004
 20
5.7367900782
 30
0.0
 40
5.0915929259
 50
334.6871277729
 51
356.3156905637
  0
ARC
  8
0
  6
CONTINUOUS
 62
         7
  5
1D2
 10
35.4180435618
 20
14.9266908196
 30
0.0
 40
10.1261414083
 50
289.9731577878
 51
300.5862362465
  0
LINE
  8
0
  6
CONTINUOUS
 62
         7
  5
1D3
 10
41.9365686775
 20
6.2810460267
 30
0.0
 11
40.5705749907
 21
6.209457331
 31
0.0
  0
ARC
  8
0
  6
CONTINUOUS
 62
         7
  5
1D4
 10
41.9349311863
 20
6.31229122
 30
0.0
 40
0.0312880726
 50
273.0
 51
93.0
  0
LINE
  8
0
  6
CONTINUOUS
 62
         7
  5
1D5
 10
40.6850067767
 20
6.2781164681
 30
0.0
 11
41.9332936951
 21
6.3435364134
 31
0.0
  0
ARC
  8
0
  6
CONTINUOUS
 62
         7
  5
1D6
 10
35.4180435618
 20
14.9266908196
 30
0.0
 40
10.1261414083
 50
301.3413250449
 51
333.2992536016
  0
LINE
  8
0
  6
CONTINUOUS
 62
         7
  5
1D7
 10
45.6777201231
 20
11.0023169018
 30
0.0
 11
44.4643892977
 21
10.3767052541
 31
0.0
  0
ARC
  8
0
  6
CONTINUOUS
 62
         7
  5
1D8
 10
45.6607482705
 20
11.0352326443
 30
0.0
 40
0.0370336318
 50
297.2763135274
 51
117.2763135274
  0
LINE
  8
0
  6
CONTINUOUS
 62
         7
  5
1D9
 10
44.5198147688
 20
10.4886168324
 30
0.0
 11
45.6437764179
 21
11.0681483868
 31
0.0
  0
ARC
  8
0
  6
CONTINUOUS
 62
         7
  5
1DA
 10
35.4180435618
 20
14.9266908196
 30
0.0
 40
10.1261414083
 50
334.0058811666
 51
9.4417882712
  0
LINE
  8
0
  6
CONTINUOUS
 62
         7
  5
1DB
 10
45.4070038903
 20
16.5878384276
 30
0.0
 11
46.0955439948
 21
17.3590867964
 31
0.0
  0
ARC
  8
0
  6
CONTINUOUS
 62
         7
  5
1DC
 10
46.0597776671
 20
17.3910175623
 30
0.0
 40
0.0479458445
 50
318.2427804467
 51
138.2427804467
  0
LINE
  8
0
  6
CONTINUOUS
 62
         7
  5
1DD
 10
46.0240113393
 20
17.4229483281
 30
0.0
 11
45.3861863562
 21
16.7085070419
 31
0.0
  0
ARC
  8
0
  6
CONTINUOUS
 62
         7
  5
1DE
 10
35.4180435618
 20
14.9266908196
 30
0.0
 40
10.1261414083
 50
10.1346461502
 51
40.7414308019
  0
LINE
  8
0
  6
CONTINUOUS
 62
         7
  5
1DF
 10
43.460083541
 20
22.3422431965
 30
0.0
 11
43.0902422208
 21
21.535480993
 31
0.0
  0
ARC
  8
0
  6
CONTINUOUS
 62
         7
  5
1E0
 10
43.3939071136
 20
22.3725802366
 30
0.0
 40
0.0727987331
 50
335.3720153888
 51
155.3720153888
  0
LINE
  8
0
  6
CONTINUOUS
 62
         7
  5
1E1
 10
42.9851307269
 20
21.6555786665
 30
0.0
 11
43.3277306862
 21
22.4029172766
 31
0.0
  0
ARC
  8
0
  6
CONTINUOUS
 62
         7
  5
1E2
 10
35.4180435618
 20
14.9266908196
 30
0.0
 40
10.1261414083
 50
41.6444845869
 51
56.69003902
  0
LINE
  8
0
  6
CONTINUOUS
 62
         7
  5
1E3
 10
39.586416481
 20
24.5338410725
 30
0.0
 11
40.9789975653
 21
23.3892276964
 31
0.0
  0
ARC
  8
0
  6
CONTINUOUS
 62
         7
  5
1E4
 10
35.4180435618
 20
14.9266908196
 30
0.0
 40
11.7511414083
 50
284.6929541157
 51
56.9498888875
  0
LINE
  8
0
  6
CONTINUOUS
 62
         7
  5
1E5
 10
35.2568131684
 20
67.5446953373
 30
0.0
 11
34.6020046984
 21
66.652508813
 31
0.0
  0
ARC
  8
0
  6
CONTINUOUS
 62
         7
  5
1E6
 10
34.6318602108
 20
66.6305967555
 30
0.0
 40
0.0370336318
 50
143.7236864726
 51
323.7236864726
  0
LINE
  8
0
  6
CONTINUOUS
 62
         7
  5
1E7
 10
34.6617157232
 20
66.608684698
 30
0.0
 11
35.3587431559
 21
67.5583952025
 31
0.0
  0
ARC
  8
0
  6
CONTINUOUS
 62
         7
  5
1E8
 10
36.8730960468
 20
55.9052385607
 30
0.0
 40
11.7511414083
 50
65.4385360035
 51
97.4042167057
  0
LINE
  8
0
  6
CONTINUOUS
 62
         7
  5
1E9
 10
40.9458742611
 20
66.0707706817
 30
0.0
 11
41.757683172
 21
66.5930883451
 31
0.0
  0
ARC
  8
0
  6
CONTINUOUS
 62
         7
  5
1EA
 10
40.9718168198
 20
66.0304496245
 30
0.0
 40
0.0479458445
 50
122.7572195533
 51
302.7572195533
  0
LINE
  8
0
  6
CONTINUOUS
 62
         7
  5
1EB
 10
41.8607540735
 20
66.5453791521
 30
0.0
 11
40.9977593786
 21
65.9901285674
 31
0.0
  0
ARC
  8
0
  6
CONTINUOUS
 62
         7
  5
1EC
 10
36.8730960468
 20
55.9052385607
 30
0.0
 40
11.7511414083
 50
36.6749951142
 51
64.8847584024
  0
LINE
  8
0
  6
CONTINUOUS
 62
         7
  5
1ED
 10
46.2979389863
 20
62.9239036733
 30
0.0
 11
45.4554028906
 21
62.6882197137
 31
0.0
  0
ARC
  8
0
  6
CONTINUOUS
 62
         7
  5
1EE
 10
45.4750141573
 20
62.6181122693
 30
0.0
 40
0.0727987331
 50
105.6279846112
 51
285.6279846112
  0
LINE
  8
0
  6
CONTINUOUS
 62
         7
  5
1EF
 10
45.494625424
 20
62.5480048249
 30
0.0
 11
46.390053842
 21
62.7984844378
 31
0.0
  0
ARC
  8
0
  6
CONTINUOUS
 62
         7
  5
1F0
 10
36.8730960468
 20
55.9052385607
 30
0.0
 40
11.7511414083
 50
24.0501111125
 51
35.9162617761
  0
LINE
  8
0
  6
CONTINUOUS
 62
         7
  5
1F1
 10
47.604113523
 20
60.6942455896
 30
0.0
 11
47.0654715176
 21
58.1601323018
 31
0.0
  0
LINE
  8
0
  6
CONTINUOUS
 62
         7
  5
1F2
 10
47.0654715176
 20
58.1601323018
 30
0.0
 11
46.7464765055
 21
58.153593101
 31
0.0
  0
ARC
  8
0
  6
CONTINUOUS
 62
         7
  5
1F3
 10
36.8730960468
 20
55.9052385607
 30
0.0
 40
10.1261414083
 50
12.8285675471
 51
151.0268422122
  0
ARC
  8
0
  6
CONTINUOUS
 62
         7
  5
1F4
 10
27.538304028
 20
55.2638130175
 30
0.0
 40
5.5669117522
 50
85.0952265888
 51
90.4390730974
  0
LINE
  8
0
  6
CONTINUOUS
 62
         7
  5
1F5
 10
27.495643691
 20
60.83056131
 30
0.0
 11
27.1359105773
 21
62.4837295373
 31
0.0
  0
ARC
  8
0
  6
CONTINUOUS
 62
         7
  5
1F6
 10
36.8730960468
 20
55.9052385607
 30
0.0
 40
11.7511414083
 50
127.8139865811
 51
145.9568437605
  0
LINE
  8
0
  6
CONTINUOUS
 62
         7
  5
1F7
 10
29.6684721704
 20
65.1887033878
 30
0.0
 11
29.3512904739
 21
63.6964808282
 31
0.0
  0
ARC
  8
0
  6
CONTINUOUS
 62
         7
  5
1F8
 10
29.3842198304
 20
63.6894814774
 30
0.0
 40
0.0336650179
 50
168.0
 51
348.0
  0
LINE
  8
0
  6
CONTINUOUS
 62
         7
  5
1F9
 10
29.4171491868
 20
63.6824821266
 30
0.0
 11
29.7507565949
 21
65.2519815832
 31
0.0
  0
ARC
  8
0
  6
CONTINUOUS
 62
         7
  5
1FA
 10
36.8730960468
 20
55.9052385607
 30
0.0
 40
11.7511414083
 50
97.9056736012
 51
127.3078709625
  0
LINE
  8
0
  6
CONTINUOUS
 62
         7
  5
1FB
 10
35.0087409949
 20
71.4715027047
 30
0.0
 11
34.3854682771
 21
70.5570071903
 31
0.0
  0
ARC
  8
0
  6
CONTINUOUS
 62
         7
  5
1FC
 10
34.4160703222
 20
70.5361504234
 30
0.0
 40
0.0370336318
 50
145.7236864726
 51
325.7236864726
  0
LINE
  8
0
  6
CONTINUOUS
 62
         7
  5
1FD
 10
34.4466723672
 20
70.5152936565
 30
0.0
 11
35.110130771
 21
71.4887515296
 31
0.0
  0
ARC
  8
0
  6
CONTINUOUS
 62
         7
  5
1FE
 10
37.0302504608
 20
59.8955438297
 30
0.0
 40
11.7511414083
 50
67.4385360035
 51
99.4042167057
  0
LINE
  8
0
  6
CONTINUOUS
 62
         7
  5
1FF
 10
40.7457756939
 20
70.197021293
 30
0.0
 11
41.5388614493
 21
70.747352497
 31
0.0
  0
ARC
  8
0
  6
CONTINUOUS
 62
         7
  5
200
 10
40.7731096337
 20
70.1576301806
 30
0.0
 40
0.0479458445
 50
124.7572195533
 51
304.7572195533
  0
LINE
  8
0
  6
CONTINUOUS
 62
         7
  5
201
 10
41.6435345896
 20
70.7032694898
 30
0.0
 11
40.8004435736
 21
70.1182390682
 31
0.0
  0
ARC
  8
0
  6
CONTINUOUS
 62
         7
  5
202
 10
37.0302504608
 20
59.8955438297
 30
0.0
 40
11.7511414083
 50
38.6749951142
 51
66.8847584024
  0
LINE
  8
0
  6
CONTINUOUS
 62
         7
  5
203
 10
46.2044041607
 20
67.2388556362
 30
0.0
 11
45.3706065667
 21
66.9739111632
 31
0.0
  0
ARC
  8
0
  6
CONTINUOUS
 62
         7
  5
204
 10
45.3926526013
 20
66.9045308497
 30
0.0
 40
0.0727987331
 50
107.6279846112
 51
287.6279846112
  0
LINE
  8
0
  6
CONTINUOUS
 62
         7
  5
205
 10
45.4146986359
 20
66.8351505362
 30
0.0
 11
46.3008399707
 21
67.1167275648
 31
0.0
  0
ARC
  8
0
  6
CONTINUOUS
 62
         7
  5
206
 10
37.0302504608
 20
59.8955438297
 30
0.0
 40
11.7511414083
 50
26.0501111125
 51
37.9162617761
  0
LINE
  8
0
  6
CONTINUOUS
 62
         7
  5
207
 10
47.5875969561
 20
65.0561406339
 30
0.0
 11
47.1377223552
 21
62.5047727245
 31
0.0
  0
LINE
  8
0
  6
CONTINUOUS
 62
         7
  5
208
 10
47.1377223552
 20
62.5047727245
 30
0.0
 11
46.819149881
 21
62.4871047419
 31
0.0
  0
ARC
  8
0
  6
CONTINUOUS
 62
         7
  5
209
 10
37.0302504608
 20
59.8955438297
 30
0.0
 40
10.1261414083
 50
14.8285675471
 51
153.0268422122
  0
ARC
  8
0
  6
CONTINUOUS
 62
         7
  5
20A
 10
27.7235303737
 20
58.9287294823
 30
0.0
 40
5.5669117521
 50
87.0952265888
 51
92.4390730974
  0
LINE
  8
0
  6
CONTINUOUS
 62
         7
  5
20B
 10
27.4866193105
 20
64.4905978378
 30
0.0
 11
27.0694105974
 21
66.1302044951
 31
0.0
  0
ARC
  8
0
  6
CONTINUOUS
 62
         7
  5
20C
 10
37.0302504608
 20
59.8955438297
 30
0.0
 40
11.7511414083
 50
129.8139865811
 51
147.9568437605
  0
LINE
  8
0
  6
CONTINUOUS
 62
         7
  5
20D
 10
29.5060271965
 20
68.9219156736
 30
0.0
 11
29.2411165348
 21
67.4195326541
 31
0.0
  0
ARC
  8
0
  6
CONTINUOUS
 62
         7
  5
20E
 10
29.2742701054
 20
67.4136867851
 30
0.0
 40
0.0336650179
 50
170.0
 51
350.0
  0
LINE
  8
0
  6
CONTINUOUS
 62
         7
  5
20F
 10
29.3074236761
 20
67.4078409161
 30
0.0
 11
29.5860531184
 21
68.9880270066
 31
0.0
  0
ARC
  8
0
  6
CONTINUOUS
 62
         7
  5
210
 10
37.0302504608
 20
59.8955438297
 30
0.0
 40
11.7511414083
 50
99.9056736012
 51
129.3078709625
  0
ENDSEC
  0
EOF
