  0
SECTION
  2
HEADER
  9
$ACADVER
  1
AC1009
  9
$DWGCODEPAGE
  3
ansi_1252
  9
$INSBASE
 10
0.0
 20
0.0
 30
0.0
  9
$EXTMIN
 10
0.0
 20
0.0
 30
0.0
  9
$EXTMAX
 10
48.0
 20
72.0
 30
0.0
  9
$LIMMIN
 10
0.0
 20
0.0
  9
$LIMMAX
 10
0.0
 20
0.0
  9
$ORTHOMODE
 70
         0
  9
$REGENMODE
 70
         1
  9
$FILLMODE
 70
         1
  9
$QTEXTMODE
 70
         0
  9
$MIRRTEXT
 70
         1
  9
$DRAGMODE
 70
         2
  9
$LTSCALE
 40
1.0
  9
$OSMODE
 70
         0
  9
$ATTMODE
 70
         1
  9
$TEXTSIZE
 40
0.1377952756
  9
$TRACEWID
 40
0.05
  9
$TEXTSTYLE
  7
STANDARD
  9
$CLAYER
  8
0
  9
$CELTYPE
  6
CONTINUOUS
  9
$CECOLOR
 62
       256
  9
$DIMSCALE
 40
1.0
  9
$DIMASZ
 40
0.0
  9
$DIMEXO
 40
0.0
  9
$DIMDLI
 40
0.38
  9
$DIMRND
 40
0.0
  9
$DIMDLE
 40
0.0
  9
$DIMEXE
 40
0.18
  9
$DIMTP
 40
0.0
  9
$DIMTM
 40
0.0
  9
$DIMTXT
 40
0.1377952756
  9
$DIMCEN
 40
0.09
  9
$DIMTSZ
 40
0.0
  9
$DIMTOL
 70
         0
  9
$DIMLIM
 70
         0
  9
$DIMTIH
 70
         1
  9
$DIMTOH
 70
         1
  9
$DIMSE1
 70
         0
  9
$DIMSE2
 70
         0
  9
$DIMTAD
 70
         1
  9
$DIMZIN
 70
         0
  9
$DIMBLK
  1

  9
$DIMASO
 70
         1
  9
$DIMSHO
 70
         1
  9
$DIMPOST
  1

  9
$DIMAPOST
  1

  9
$DIMALT
 70
         0
  9
$DIMALTD
 70
         2
  9
$DIMALTF
 40
25.4
  9
$DIMLFAC
 40
1.0
  9
$DIMTOFL
 70
         0
  9
$DIMTVP
 40
0.0
  9
$DIMTIX
 70
         0
  9
$DIMSOXD
 70
         0
  9
$DIMSAH
 70
         0
  9
$DIMBLK1
  1

  9
$DIMBLK2
  1

  9
$DIMSTYLE
  2
STANDARD
  9
$DIMCLRD
 70
         0
  9
$DIMCLRE
 70
         0
  9
$DIMCLRT
 70
         0
  9
$DIMTFAC
 40
1.0
  9
$DIMGAP
 40
0.0
  9
$LUNITS
 70
         2
  9
$LUPREC
 70
         2
  9
$AXISMODE
 70
         0
  9
$AXISUNIT
 10
0.0
 20
0.0
  9
$SKETCHINC
 40
0.1
  9
$FILLETRAD
 40
0.0
  9
$AUNITS
 70
         0
  9
$AUPREC
 70
         2
  9
$MENU
  1
acad
  9
$ELEVATION
 40
0.0
  9
$PELEVATION
 40
0.0
  9
$THICKNESS
 40
0.0
  9
$LIMCHECK
 70
         0
  9
$BLIPMODE
 70
         1
  9
$CHAMFERA
 40
0.0
  9
$CHAMFERB
 40
0.0
  9
$SKPOLY
 70
         0
  9
$TDCREATE
 40
0.000000000
  9
$TDUPDATE
 40
0.000000000
  9
$TDINDWG
 40
0.0000000000
  9
$TDUSRTIMER
 40
0.0000000000
  9
$USRTIMER
 70
         1
  9
$ANGBASE
 50
0.0
  9
$ANGDIR
 70
         0
  9
$PDMODE
 70
         0
  9
$PDSIZE
 40
-1.0
  9
$PLINEWID
 40
0.0
  9
$COORDS
 70
         0
  9
$SPLFRAME
 70
         0
  9
$SPLINETYPE
 70
         6
  9
$SPLINESEGS
 70
         8
  9
$ATTDIA
 70
         0
  9
$ATTREQ
 70
         1
  9
$HANDLING
 70
         1
  9
$HANDSEED
  5
11F
  9
$SURFTAB1
 70
         6
  9
$SURFTAB2
 70
         6
  9
$SURFTYPE
 70
         6
  9
$SURFU
 70
         6
  9
$SURFV
 70
         6
  9
$UCSNAME
  2

  9
$UCSORG
 10
0.0
 20
0.0
 30
0.0
  9
$UCSXDIR
 10
1.0
 20
0.0
 30
0.0
  9
$UCSYDIR
 10
0.0
 20
1.0
 30
0.0
  9
$PUCSNAME
  2

  9
$PUCSORG
 10
0.0
 20
0.0
 30
0.0
  9
$PUCSXDIR
 10
1.0
 20
0.0
 30
0.0
  9
$PUCSYDIR
 10
0.0
 20
1.0
 30
0.0
  9
$USERI1
 70
         0
  9
$USERI2
 70
         0
  9
$USERI3
 70
         0
  9
$USERI4
 70
         0
  9
$USERI5
 70
         0
  9
$USERR1
 40
0.0
  9
$USERR2
 40
0.0
  9
$USERR3
 40
0.0
  9
$USERR4
 40
0.0
  9
$USERR5
 40
0.0
  9
$WORLDVIEW
 70
         1
  9
$SHADEDGE
 70
         3
  9
$SHADEDIF
 70
        70
  9
$TILEMODE
 70
         1
  9
$MAXACTVP
 70
        16
  9
$PINSBASE
 10
0.0
 20
0.0
 30
0.0
  9
$PLIMCHECK
 70
         0
  9
$PEXTMIN
 10
1.0000000000E+20
 20
1.0000000000E+20
 30
1.0000000000E+20
  9
$PEXTMAX
 10
-1.0000000000E+20
 20
-1.0000000000E+20
 30
-1.0000000000E+20
  9
$PLIMMIN
 10
0.0
 20
0.0
  9
$PLIMMAX
 10
12.0
 20
9.0
  9
$UNITMODE
 70
         0
  9
$VISRETAIN
 70
         0
  9
$PLINEGEN
 70
         1
  9
$PSLTSCALE
 70
         1
  9
$TREEDEPTH
 70
      3020
  0
ENDSEC
  0
SECTION
  2
TABLES
  0
TABLE
  2
VPORT
 70
         1
  0
VPORT
  2
*ACTIVE
 70
         0
 10
0.0
 20
0.0
 11
1.0
 21
1.0
 12
24.0
 22
36.0
 13
0.0
 23
0.0
 14
1.0
 24
1.0
 15
0.0
 25
0.0
 16
0.0
 26
0.0
 36
1.0
 17
0.0
 27
0.0
 37
0.0
 40
72.0
 41
1.5
 42
50.0
 43
0.0
 44
0.0
 50
0.0
 51
0.0
 71
         0
 72
      2000
 73
         1
 74
         1
 75
         0
 76
         0
 77
         0
 78
         0
  0
ENDTAB
  0
TABLE
  2
LTYPE
 70
         6
  0
LTYPE
  2
CONTINUOUS
 70
        64
  3
Solid line
 72
        65
 73
         0
 40
0.0
  0
LTYPE
  2
HIDDEN
 70
        64
  3
Hidden __ __ __ __ __ __ __ __ __ __ __ __ __ __
 72
        65
 73
         2
 40
0.075
 49
0.05
 49
-0.025
  0
LTYPE
  2
PHANTOM
 70
        64
  3
Phantom ______  __  __  ______  __  __  ______
 72
        65
 73
         6
 40
0.5
 49
0.25
 49
-0.05
 49
0.05
 49
-0.05
 49
0.05
 49
-0.05
  0
LTYPE
  2
CENTER
 70
        64
  3
Center ____ _ ____ _ ____ _ ____ _ ____ _ ____
 72
        65
 73
         4
 40
0.4
 49
0.25
 49
-0.05
 49
0.05
 49
-0.05
  0
LTYPE
  2
CENTERX2
 70
        64
  3
Center (2x) ________  __  ________  __  _____
 72
        65
 73
         4
 40
0.8
 49
0.5
 49
-0.1
 49
0.1
 49
-0.1
  0
LTYPE
  2
DOT2
 70
        64
  3
Dot (.5x) ........................................
 72
        65
 73
         2
 40
0.025
 49
0.0
 49
-0.025
  0
ENDTAB
  0
TABLE
  2
LAYER
 70
         2
  0
LAYER
  2
0
 70
         0
 62
         7
  6
CONTINUOUS
  0
LAYER
  2
DEFPOINTS
 70
         0
 62
         7
  6
CONTINUOUS
  0
ENDTAB
  0
TABLE
  2
STYLE
 70
         1
  0
STYLE
  2
STANDARD
 70
         0
 40
0.0
 41
1.0
 50
0.0
 71
         0
 42
0.0
  3
txt
  4

  0
ENDTAB
  0
TABLE
  2
VIEW
 70
         0
  0
ENDTAB
  0
TABLE
  2
UCS
 70
         0
  0
ENDTAB
  0
TABLE
  2
APPID
 70
         1
  0
APPID
  2
ACAD
 70
         0
  0
ENDTAB
  0
TABLE
  2
DIMSTYLE
 70
         1
  0
DIMSTYLE
  2
STANDARD
 70
         0
  3

  4

  5

  6

  7

 40
1.0
 41
0.18
 42
0.0625
 43
0.38
 44
0.18
 45
0.0
 46
0.0
 47
0.0
 48
0.0
 71
         0
 72
         0
 73
         1
 74
         1
 75
         0
 76
         0
 77
         0
 78
         0
140
0.18
141
0.09
142
0.0
143
25.4
144
1.0
145
0.0
146
1.0
147
0.09
170
         0
171
         2
172
         0
173
         0
174
         0
175
         0
176
         0
177
         0
178
         0
  0
ENDTAB
  0
ENDSEC
  0
SECTION
  2
BLOCKS
  0
ENDSEC
  0
SECTION
  2
ENTITIES
  0
LINE
  8
0
  6
CONTINUOUS
 62
         7
  5
24
 10
44.6234671071
 20
31.8264913149
 30
0.0
 11
44.6234671071
 21
33.5764913149
 31
0.0
  0
LINE
  8
0
  6
CONTINUOUS
 62
         7
  5
25
 10
25.7734671071
 20
30.0764913149
 30
0.0
 11
25.7734671071
 21
31.8264913149
 31
0.0
  0
LINE
  8
0
  6
CONTINUOUS
 62
         7
  5
26
 10
25.7734671071
 20
30.0764913149
 30
0.0
 11
44.6234671071
 21
30.0764913149
 31
0.0
  0
LINE
  8
0
  6
CONTINUOUS
 62
         7
  5
27
 10
44.6234671071
 20
30.0764913149
 30
0.0
 11
44.6234671071
 21
31.8264913149
 31
0.0
  0
LINE
  8
0
  6
CONTINUOUS
 62
         7
  5
28
 10
25.7734671071
 20
31.8264913149
 30
0.0
 11
44.6234671071
 21
31.8264913149
 31
0.0
  0
LINE
  8
0
  6
CONTINUOUS
 62
         7
  5
29
 10
44.6234671071
 20
33.5764913149
 30
0.0
 11
25.7734671071
 21
33.5764913149
 31
0.0
  0
LINE
  8
0
  6
CONTINUOUS
 62
         7
  5
2A
 10
25.7734671071
 20
33.5764913149
 30
0.0
 11
25.7734671071
 21
31.8264913149
 31
0.0
  0
LINE
  8
0
  6
CONTINUOUS
 62
         7
  5
2B
 10
35.2712738021
 20
64.0362738133
 30
0.0
 11
34.5706692894
 21
63.1795800271
 31
0.0
  0
ARC
  8
0
  6
CONTINUOUS
 62
         7
  5
2C
 10
34.5993370974
 20
63.1561354825
 30
0.0
 40
0.0370336318
 50
140.7236864726
 51
320.7236864726
  0
LINE
  8
0
  6
CONTINUOUS
 62
         7
  5
2D
 10
34.6280049054
 20
63.1326909379
 30
0.0
 11
35.3737810936
 21
64.0446202999
 31
0.0
  0
ARC
  8
0
  6
CONTINUOUS
 62
         7
  5
2E
 10
36.2761795204
 20
52.3281787976
 30
0.0
 40
11.7511414083
 50
62.4385360035
 51
94.4042167057
  0
LINE
  8
0
  6
CONTINUOUS
 62
         7
  5
2F
 10
40.8753989779
 20
62.2666266678
 30
0.0
 11
41.7134313274
 21
62.7457417173
 31
0.0
  0
ARC
  8
0
  6
CONTINUOUS
 62
         7
  5
30
 10
40.8991957422
 20
62.2250031406
 30
0.0
 40
0.0479458445
 50
119.7572195533
 51
299.7572195533
  0
LINE
  8
0
  6
CONTINUOUS
 62
         7
  5
31
 10
41.8138640675
 20
62.692703594
 30
0.0
 11
40.9229925065
 21
62.1833796134
 31
0.0
  0
ARC
  8
0
  6
CONTINUOUS
 62
         7
  5
32
 10
36.2761795204
 20
52.3281787976
 30
0.0
 40
11.7511414083
 50
33.6749951142
 51
61.8847584024
  0
LINE
  8
0
  6
CONTINUOUS
 62
         7
  5
33
 10
46.0554345904
 20
58.8439669059
 30
0.0
 11
45.2017184157
 21
58.6527008752
 31
0.0
  0
ARC
  8
0
  6
CONTINUOUS
 62
         7
  5
34
 10
45.2176336657
 20
58.5816631363
 30
0.0
 40
0.0727987331
 50
102.6279846112
 51
282.6279846112
  0
LINE
  8
0
  6
CONTINUOUS
 62
         7
  5
35
 10
45.2335489157
 20
58.5106253973
 30
0.0
 11
46.1408592703
 21
58.7138986341
 31
0.0
  0
ARC
  8
0
  6
CONTINUOUS
 62
         7
  5
36
 10
36.2761795204
 20
52.3281787976
 30
0.0
 40
11.7511414083
 50
21.0501111125
 51
32.9162617761
  0
LINE
  8
0
  6
CONTINUOUS
 62
         7
  5
37
 10
47.2431277724
 20
56.5490045978
 30
0.0
 11
46.572598715
 21
54.0465545686
 31
0.0
  0
LINE
  8
0
  6
CONTINUOUS
 62
         7
  5
38
 10
46.572598715
 20
54.0465545686
 30
0.0
 11
46.2536986391
 21
54.0567192385
 31
0.0
  0
ARC
  8
0
  6
CONTINUOUS
 62
         7
  5
39
 10
36.2761795204
 20
52.3281787976
 30
0.0
 40
10.1261414083
 50
9.8285675471
 51
148.0268422122
  0
ARC
  8
0
  6
CONTINUOUS
 62
         7
  5
3A
 10
26.9206108904
 20
52.1761775725
 30
0.0
 40
5.5669117521
 50
82.0952265888
 51
87.4390730974
  0
LINE
  8
0
  6
CONTINUOUS
 62
         7
  5
3B
 10
27.169350113
 20
57.7375294994
 30
0.0
 11
26.896630141
 21
59.4072590936
 31
0.0
  0
ARC
  8
0
  6
CONTINUOUS
 62
         7
  5
3C
 10
36.2761795204
 20
52.3281787976
 30
0.0
 40
11.7511414083
 50
124.8139865811
 51
142.9568437605
  0
LINE
  8
0
  6
CONTINUOUS
 62
         7
  5
3D
 10
29.5672883396
 20
61.9759818388
 30
0.0
 11
29.172444435
 21
60.5024043258
 31
0.0
  0
ARC
  8
0
  6
CONTINUOUS
 62
         7
  5
3E
 10
29.2049623452
 20
60.493691178
 30
0.0
 40
0.0336650179
 50
165.0
 51
344.9999999999
  0
LINE
  8
0
  6
CONTINUOUS
 62
         7
  5
3F
 10
29.2374802554
 20
60.4849780302
 30
0.0
 11
29.652771721
 21
62.0348668796
 31
0.0
  0
ARC
  8
0
  6
CONTINUOUS
 62
         7
  5
40
 10
36.2761795204
 20
52.3281787976
 30
0.0
 40
11.7511414083
 50
94.9056736012
 51
124.3078709625
  0
LINE
  8
0
  6
CONTINUOUS
 62
         7
  5
41
 10
28.8470327223
 20
25.2150610571
 30
0.0
 11
28.8535747502
 21
25.0902317286
 31
0.0
  0
LINE
  8
0
  6
CONTINUOUS
 62
         7
  5
42
 10
31.0939492147
 20
25.332816567
 30
0.0
 11
28.8470327223
 21
25.2150610571
 31
0.0
  0
ARC
  8
0
  6
CONTINUOUS
 62
         7
  5
43
 10
23.0630181696
 20
6.2931807343
 30
0.0
 40
5.0915929259
 50
334.6871277729
 51
356.3156905637
  0
ARC
  8
0
  6
CONTINUOUS
 62
         7
  5
44
 10
24.685201831
 20
15.4830814757
 30
0.0
 40
10.1261414083
 50
289.9731577878
 51
300.5862362465
  0
LINE
  8
0
  6
CONTINUOUS
 62
         7
  5
45
 10
31.2037269467
 20
6.8374366828
 30
0.0
 11
29.8377332599
 21
6.7658479871
 31
0.0
  0
ARC
  8
0
  6
CONTINUOUS
 62
         7
  5
46
 10
31.2020894556
 20
6.8686818761
 30
0.0
 40
0.0312880726
 50
273.0
 51
93.0
  0
LINE
  8
0
  6
CONTINUOUS
 62
         7
  5
47
 10
29.9521650459
 20
6.8345071242
 30
0.0
 11
31.2004519644
 21
6.8999270695
 31
0.0
  0
ARC
  8
0
  6
CONTINUOUS
 62
         7
  5
48
 10
24.685201831
 20
15.4830814757
 30
0.0
 40
10.1261414083
 50
301.3413250449
 51
333.2992536016
  0
LINE
  8
0
  6
CONTINUOUS
 62
         7
  5
49
 10
34.9448783923
 20
11.5587075579
 30
0.0
 11
33.7315475669
 21
10.9330959102
 31
0.0
  0
ARC
  8
0
  6
CONTINUOUS
 62
         7
  5
4A
 10
34.9279065397
 20
11.5916233004
 30
0.0
 40
0.0370336318
 50
297.2763135274
 51
117.2763135274
  0
LINE
  8
0
  6
CONTINUOUS
 62
         7
  5
4B
 10
33.786973038
 20
11.0450074885
 30
0.0
 11
34.9109346871
 21
11.6245390429
 31
0.0
  0
ARC
  8
0
  6
CONTINUOUS
 62
         7
  5
4C
 10
24.685201831
 20
15.4830814757
 30
0.0
 40
10.1261414083
 50
334.0058811666
 51
9.4417882712
  0
LINE
  8
0
  6
CONTINUOUS
 62
         7
  5
4D
 10
34.6741621595
 20
17.1442290837
 30
0.0
 11
35.3627022641
 21
17.9154774525
 31
0.0
  0
ARC
  8
0
  6
CONTINUOUS
 62
         7
  5
4E
 10
35.3269359363
 20
17.9474082184
 30
0.0
 40
0.0479458445
 50
318.2427804467
 51
138.2427804467
  0
LINE
  8
0
  6
CONTINUOUS
 62
         7
  5
4F
 10
35.2911696085
 20
17.9793389842
 30
0.0
 11
34.6533446254
 21
17.264897698
 31
0.0
  0
ARC
  8
0
  6
CONTINUOUS
 62
         7
  5
50
 10
24.685201831
 20
15.4830814757
 30
0.0
 40
10.1261414083
 50
10.1346461502
 51
40.7414308019
  0
LINE
  8
0
  6
CONTINUOUS
 62
         7
  5
51
 10
32.7272418102
 20
22.8986338526
 30
0.0
 11
32.3574004901
 21
22.0918716491
 31
0.0
  0
ARC
  8
0
  6
CONTINUOUS
 62
         7
  5
52
 10
32.6610653828
 20
22.9289708927
 30
0.0
 40
0.0727987331
 50
335.3720153888
 51
155.3720153887
  0
LINE
  8
0
  6
CONTINUOUS
 62
         7
  5
53
 10
32.2522889961
 20
22.2119693226
 30
0.0
 11
32.5948889554
 21
22.9593079327
 31
0.0
  0
ARC
  8
0
  6
CONTINUOUS
 62
         7
  5
54
 10
24.685201831
 20
15.4830814757
 30
0.0
 40
10.1261414083
 50
41.6444845869
 51
56.69003902
  0
LINE
  8
0
  6
CONTINUOUS
 62
         7
  5
55
 10
28.8535747502
 20
25.0902317286
 30
0.0
 11
30.2461558345
 21
23.9456183525
 31
0.0
  0
ARC
  8
0
  6
CONTINUOUS
 62
         7
  5
56
 10
24.685201831
 20
15.4830814757
 30
0.0
 40
11.7511414083
 50
284.6929541157
 51
56.9498888875
  0
LINE
  8
0
  6
CONTINUOUS
 62
         7
  5
57
 10
35.3685597422
 20
50.5927592798
 30
0.0
 11
34.4032223627
 21
51.1339567209
 31
0.0
  0
ARC
  8
0
  6
CONTINUOUS
 62
         7
  5
58
 10
34.3851121061
 20
51.1016533389
 30
0.0
 40
0.0370336318
 50
60.7236864726
 51
240.7236864726
  0
LINE
  8
0
  6
CONTINUOUS
 62
         7
  5
59
 10
34.3670018494
 20
51.0693499568
 30
0.0
 11
35.3945796314
 21
50.4932586566
 31
0.0
  0
ARC
  8
0
  6
CONTINUOUS
 62
         7
  5
5A
 10
24.0128370446
 20
47.5700309739
 30
0.0
 40
11.7511414083
 50
342.4385360035
 51
14.4042167057
  0
LINE
  8
0
  6
CONTINUOUS
 62
         7
  5
5B
 10
34.5989436375
 20
44.7664773559
 30
0.0
 11
35.2163026431
 21
44.0243740561
 31
0.0
  0
ARC
  8
0
  6
CONTINUOUS
 62
         7
  5
5C
 10
34.56208473
 20
44.7358142682
 30
0.0
 40
0.0479458445
 50
39.7572195533
 51
219.7572195533
  0
LINE
  8
0
  6
CONTINUOUS
 62
         7
  5
5D
 10
35.1815102504
 20
43.9162571414
 30
0.0
 11
34.5252258224
 21
44.7051511806
 31
0.0
  0
ARC
  8
0
  6
CONTINUOUS
 62
         7
  5
5E
 10
24.0128370446
 20
47.5700309739
 30
0.0
 40
11.7511414083
 50
313.6749951142
 51
341.8847584024
  0
LINE
  8
0
  6
CONTINUOUS
 62
         7
  5
5F
 10
32.1277855124
 20
39.0707994933
 30
0.0
 11
31.7911789845
 21
39.8783328034
 31
0.0
  0
ARC
  8
0
  6
CONTINUOUS
 62
         7
  5
60
 10
31.7239841226
 20
39.8503237679
 30
0.0
 40
0.0727987331
 50
22.6279846112
 51
202.6279846112
  0
LINE
  8
0
  6
CONTINUOUS
 62
         7
  5
61
 10
31.6567892607
 20
39.8223147324
 30
0.0
 11
32.0145271099
 21
38.964086488
 31
0.0
  0
ARC
  8
0
  6
CONTINUOUS
 62
         7
  5
62
 10
24.0128370446
 20
47.5700309739
 30
0.0
 40
11.7511414083
 50
301.0501111125
 51
312.9162617761
  0
LINE
  8
0
  6
CONTINUOUS
 62
         7
  5
63
 10
30.0739295952
 20
37.5026340169
 30
0.0
 11
27.493061256
 21
37.728430344
 31
0.0
  0
LINE
  8
0
  6
CONTINUOUS
 62
         7
  5
64
 10
27.493061256
 20
37.728430344
 30
0.0
 11
27.4476950847
 21
38.0442506876
 31
0.0
  0
ARC
  8
0
  6
CONTINUOUS
 62
         7
  5
65
 10
24.0128370446
 20
47.5700309739
 30
0.0
 40
10.1261414083
 50
289.8285675471
 51
68.0268422122
  0
ARC
  8
0
  6
CONTINUOUS
 62
         7
  5
66
 10
22.238567616
 20
56.7570727588
 30
0.0
 40
5.5669117521
 50
2.0952265888
 51
7.4390730974
  0
LINE
  8
0
  6
CONTINUOUS
 62
         7
  5
67
 10
27.7586232235
 20
57.4778310714
 30
0.0
 11
29.3556285472
 21
58.0363533155
 31
0.0
  0
ARC
  8
0
  6
CONTINUOUS
 62
         7
  5
68
 10
24.0128370446
 20
47.5700309739
 30
0.0
 40
11.7511414083
 50
44.8139865811
 51
62.9568437605
  0
LINE
  8
0
  6
CONTINUOUS
 62
         7
  5
69
 10
32.3490815514
 20
55.8523224395
 30
0.0
 11
30.8293270673
 21
55.9852837282
 31
0.0
  0
ARC
  8
0
  6
CONTINUOUS
 62
         7
  5
6A
 10
30.8263929677
 20
55.9517468159
 30
0.0
 40
0.0336650179
 50
85.0
 51
265.0
  0
LINE
  8
0
  6
CONTINUOUS
 62
         7
  5
6B
 10
30.823458868
 20
55.9182099035
 30
0.0
 11
32.4219160294
 21
55.7783630228
 31
0.0
  0
ARC
  8
0
  6
CONTINUOUS
 62
         7
  5
6C
 10
24.0128370446
 20
47.5700309739
 30
0.0
 40
11.7511414083
 50
14.9056736012
 51
44.3078709625
  0
LINE
  8
0
  6
CONTINUOUS
 62
         7
  5
6D
 10
38.8771184705
 20
50.5927592798
 30
0.0
 11
37.911781091
 21
51.1339567209
 31
0.0
  0
ARC
  8
0
  6
CONTINUOUS
 62
         7
  5
6E
 10
37.8936708343
 20
51.1016533389
 30
0.0
 40
0.0370336318
 50
60.7236864726
 51
240.7236864726
  0
LINE
  8
0
  6
CONTINUOUS
 62
         7
  5
6F
 10
37.8755605777
 20
51.0693499568
 30
0.0
 11
38.9031383597
 21
50.4932586566
 31
0.0
  0
ARC
  8
0
  6
CONTINUOUS
 62
         7
  5
70
 10
27.5213957728
 20
47.5700309739
 30
0.0
 40
11.7511414083
 50
342.4385360035
 51
14.4042167057
  0
LINE
  8
0
  6
CONTINUOUS
 62
         7
  5
71
 10
38.1075023658
 20
44.7664773559
 30
0.0
 11
38.7248613714
 21
44.0243740561
 31
0.0
  0
ARC
  8
0
  6
CONTINUOUS
 62
         7
  5
72
 10
38.0706434582
 20
44.7358142682
 30
0.0
 40
0.0479458445
 50
39.7572195533
 51
219.7572195533
  0
LINE
  8
0
  6
CONTINUOUS
 62
         7
  5
73
 10
38.6900689786
 20
43.9162571414
 30
0.0
 11
38.0337845507
 21
44.7051511806
 31
0.0
  0
ARC
  8
0
  6
CONTINUOUS
 62
         7
  5
74
 10
27.5213957728
 20
47.5700309739
 30
0.0
 40
11.7511414083
 50
313.6749951142
 51
341.8847584024
  0
LINE
  8
0
  6
CONTINUOUS
 62
         7
  5
75
 10
35.6363442407
 20
39.0707994933
 30
0.0
 11
35.2997377128
 21
39.8783328034
 31
0.0
  0
ARC
  8
0
  6
CONTINUOUS
 62
         7
  5
76
 10
35.2325428509
 20
39.8503237679
 30
0.0
 40
0.0727987331
 50
22.6279846113
 51
202.6279846112
  0
LINE
  8
0
  6
CONTINUOUS
 62
         7
  5
77
 10
35.165347989
 20
39.8223147324
 30
0.0
 11
35.5230858382
 21
38.964086488
 31
0.0
  0
ARC
  8
0
  6
CONTINUOUS
 62
         7
  5
78
 10
27.5213957728
 20
47.5700309739
 30
0.0
 40
11.7511414083
 50
301.0501111125
 51
312.9162617761
  0
LINE
  8
0
  6
CONTINUOUS
 62
         7
  5
79
 10
33.5824883235
 20
37.5026340169
 30
0.0
 11
31.0016199843
 21
37.728430344
 31
0.0
  0
LINE
  8
0
  6
CONTINUOUS
 62
         7
  5
7A
 10
31.0016199843
 20
37.728430344
 30
0.0
 11
30.956253813
 21
38.0442506876
 31
0.0
  0
ARC
  8
0
  6
CONTINUOUS
 62
         7
  5
7B
 10
27.5213957728
 20
47.5700309739
 30
0.0
 40
10.1261414083
 50
289.8285675471
 51
68.0268422122
  0
ARC
  8
0
  6
CONTINUOUS
 62
         7
  5
7C
 10
25.7471263442
 20
56.7570727588
 30
0.0
 40
5.5669117521
 50
2.0952265888
 51
7.4390730974
  0
LINE
  8
0
  6
CONTINUOUS
 62
         7
  5
7D
 10
31.2671819518
 20
57.4778310714
 30
0.0
 11
32.8641872755
 21
58.0363533155
 31
0.0
  0
ARC
  8
0
  6
CONTINUOUS
 62
         7
  5
7E
 10
27.5213957728
 20
47.5700309739
 30
0.0
 40
11.7511414083
 50
44.8139865811
 51
62.9568437605
  0
LINE
  8
0
  6
CONTINUOUS
 62
         7
  5
7F
 10
35.8576402796
 20
55.8523224395
 30
0.0
 11
34.3378857956
 21
55.9852837282
 31
0.0
  0
ARC
  8
0
  6
CONTINUOUS
 62
         7
  5
80
 10
34.334951696
 20
55.9517468159
 30
0.0
 40
0.0336650179
 50
85.0
 51
265.0
  0
LINE
  8
0
  6
CONTINUOUS
 62
         7
  5
81
 10
34.3320175963
 20
55.9182099035
 30
0.0
 11
35.9304747577
 21
55.7783630228
 31
0.0
  0
ARC
  8
0
  6
CONTINUOUS
 62
         7
  5
82
 10
27.5213957728
 20
47.5700309739
 30
0.0
 40
11.7511414083
 50
14.9056736012
 51
44.3078709625
  0
LINE
  8
0
  6
CONTINUOUS
 62
         7
  5
83
 10
42.5703381845
 20
50.5927592798
 30
0.0
 11
41.605000805
 21
51.1339567209
 31
0.0
  0
ARC
  8
0
  6
CONTINUOUS
 62
         7
  5
84
 10
41.5868905483
 20
51.1016533389
 30
0.0
 40
0.0370336318
 50
60.7236864726
 51
240.7236864726
  0
LINE
  8
0
  6
CONTINUOUS
 62
         7
  5
85
 10
41.5687802917
 20
51.0693499568
 30
0.0
 11
42.5963580736
 21
50.4932586566
 31
0.0
  0
ARC
  8
0
  6
CONTINUOUS
 62
         7
  5
86
 10
31.2146154868
 20
47.5700309739
 30
0.0
 40
11.7511414083
 50
342.4385360035
 51
14.4042167057
  0
LINE
  8
0
  6
CONTINUOUS
 62
         7
  5
87
 10
41.8007220797
 20
44.7664773559
 30
0.0
 11
42.4180810854
 21
44.0243740561
 31
0.0
  0
ARC
  8
0
  6
CONTINUOUS
 62
         7
  5
88
 10
41.7638631722
 20
44.7358142682
 30
0.0
 40
0.0479458445
 50
39.7572195533
 51
219.7572195533
  0
LINE
  8
0
  6
CONTINUOUS
 62
         7
  5
89
 10
42.3832886926
 20
43.9162571414
 30
0.0
 11
41.7270042646
 21
44.7051511806
 31
0.0
  0
ARC
  8
0
  6
CONTINUOUS
 62
         7
  5
8A
 10
31.2146154868
 20
47.5700309739
 30
0.0
 40
11.7511414083
 50
313.6749951142
 51
341.8847584024
  0
LINE
  8
0
  6
CONTINUOUS
 62
         7
  5
8B
 10
39.3295639547
 20
39.0707994933
 30
0.0
 11
38.9929574268
 21
39.8783328034
 31
0.0
  0
ARC
  8
0
  6
CONTINUOUS
 62
         7
  5
8C
 10
38.9257625649
 20
39.8503237679
 30
0.0
 40
0.0727987331
 50
22.6279846113
 51
202.6279846112
  0
LINE
  8
0
  6
CONTINUOUS
 62
         7
  5
8D
 10
38.8585677029
 20
39.8223147324
 30
0.0
 11
39.2163055521
 21
38.964086488
 31
0.0
  0
ARC
  8
0
  6
CONTINUOUS
 62
         7
  5
8E
 10
31.2146154868
 20
47.5700309739
 30
0.0
 40
11.7511414083
 50
301.0501111125
 51
312.9162617761
  0
LINE
  8
0
  6
CONTINUOUS
 62
         7
  5
8F
 10
37.2757080374
 20
37.5026340169
 30
0.0
 11
34.6948396982
 21
37.728430344
 31
0.0
  0
LINE
  8
0
  6
CONTINUOUS
 62
         7
  5
90
 10
34.6948396982
 20
37.728430344
 30
0.0
 11
34.649473527
 21
38.0442506876
 31
0.0
  0
ARC
  8
0
  6
CONTINUOUS
 62
         7
  5
91
 10
31.2146154868
 20
47.5700309739
 30
0.0
 40
10.1261414083
 50
289.8285675471
 51
68.0268422122
  0
ARC
  8
0
  6
CONTINUOUS
 62
         7
  5
92
 10
29.4403460582
 20
56.7570727588
 30
0.0
 40
5.5669117521
 50
2.0952265888
 51
7.4390730974
  0
LINE
  8
0
  6
CONTINUOUS
 62
         7
  5
93
 10
34.9604016658
 20
57.4778310714
 30
0.0
 11
36.5574069894
 21
58.0363533155
 31
0.0
  0
ARC
  8
0
  6
CONTINUOUS
 62
         7
  5
94
 10
31.2146154868
 20
47.5700309739
 30
0.0
 40
11.7511414083
 50
44.8139865811
 51
62.9568437605
  0
LINE
  8
0
  6
CONTINUOUS
 62
         7
  5
95
 10
39.5508599936
 20
55.8523224395
 30
0.0
 11
38.0311055096
 21
55.9852837282
 31
0.0
  0
ARC
  8
0
  6
CONTINUOUS
 62
         7
  5
96
 10
38.0281714099
 20
55.9517468159
 30
0.0
 40
0.0336650179
 50
85.0
 51
265.0
  0
LINE
  8
0
  6
CONTINUOUS
 62
         7
  5
97
 10
38.0252373103
 20
55.9182099035
 30
0.0
 11
39.6236944716
 21
55.7783630228
 31
0.0
  0
ARC
  8
0
  6
CONTINUOUS
 62
         7
  5
98
 10
31.2146154868
 20
47.5700309739
 30
0.0
 40
11.7511414083
 50
14.9056736012
 51
44.3078709625
  0
LINE
  8
0
  6
CONTINUOUS
 62
         7
  5
99
 10
46.540549377
 20
50.4080982941
 30
0.0
 11
45.5752119975
 21
50.9492957352
 31
0.0
  0
ARC
  8
0
  6
CONTINUOUS
 62
         7
  5
9A
 10
45.5571017408
 20
50.9169923532
 30
0.0
 40
0.0370336318
 50
60.7236864726
 51
240.7236864726
  0
LINE
  8
0
  6
CONTINUOUS
 62
         7
  5
9B
 10
45.5389914842
 20
50.8846889712
 30
0.0
 11
46.5665692661
 21
50.3085976709
 31
0.0
  0
ARC
  8
0
  6
CONTINUOUS
 62
         7
  5
9C
 10
35.1848266793
 20
47.3853699882
 30
0.0
 40
11.7511414083
 50
342.4385360035
 51
14.4042167057
  0
LINE
  8
0
  6
CONTINUOUS
 62
         7
  5
9D
 10
45.7709332722
 20
44.5818163702
 30
0.0
 11
46.3882922779
 21
43.8397130704
 31
0.0
  0
ARC
  8
0
  6
CONTINUOUS
 62
         7
  5
9E
 10
45.7340743647
 20
44.5511532825
 30
0.0
 40
0.0479458445
 50
39.7572195533
 51
219.7572195533
  0
LINE
  8
0
  6
CONTINUOUS
 62
         7
  5
9F
 10
46.3534998851
 20
43.7315961557
 30
0.0
 11
45.6972154572
 21
44.5204901949
 31
0.0
  0
ARC
  8
0
  6
CONTINUOUS
 62
         7
  5
A0
 10
35.1848266793
 20
47.3853699882
 30
0.0
 40
11.7511414083
 50
313.6749951142
 51
341.8847584024
  0
LINE
  8
0
  6
CONTINUOUS
 62
         7
  5
A1
 10
43.2997751472
 20
38.8861385076
 30
0.0
 11
42.9631686193
 21
39.6936718177
 31
0.0
  0
ARC
  8
0
  6
CONTINUOUS
 62
         7
  5
A2
 10
42.8959737574
 20
39.6656627822
 30
0.0
 40
0.0727987331
 50
22.6279846112
 51
202.6279846112
  0
LINE
  8
0
  6
CONTINUOUS
 62
         7
  5
A3
 10
42.8287788955
 20
39.6376537467
 30
0.0
 11
43.1865167446
 21
38.7794255023
 31
0.0
  0
ARC
  8
0
  6
CONTINUOUS
 62
         7
  5
A4
 10
35.1848266793
 20
47.3853699882
 30
0.0
 40
11.7511414083
 50
301.0501111125
 51
312.9162617761
  0
LINE
  8
0
  6
CONTINUOUS
 62
         7
  5
A5
 10
41.24591923
 20
37.3179730312
 30
0.0
 11
38.6650508907
 21
37.5437693583
 31
0.0
  0
LINE
  8
0
  6
CONTINUOUS
 62
         7
  5
A6
 10
38.6650508907
 20
37.5437693583
 30
0.0
 11
38.6196847195
 21
37.8595897019
 31
0.0
  0
ARC
  8
0
  6
CONTINUOUS
 62
         7
  5
A7
 10
35.1848266793
 20
47.3853699882
 30
0.0
 40
10.1261414083
 50
289.8285675471
 51
68.0268422122
  0
ARC
  8
0
  6
CONTINUOUS
 62
         7
  5
A8
 10
33.4105572507
 20
56.5724117731
 30
0.0
 40
5.5669117521
 50
2.0952265888
 51
7.4390730974
  0
LINE
  8
0
  6
CONTINUOUS
 62
         7
  5
A9
 10
38.9306128583
 20
57.2931700858
 30
0.0
 11
40.5276181819
 21
57.8516923298
 31
0.0
  0
ARC
  8
0
  6
CONTINUOUS
 62
         7
  5
AA
 10
35.1848266793
 20
47.3853699882
 30
0.0
 40
11.7511414083
 50
44.8139865811
 51
62.9568437605
  0
LINE
  8
0
  6
CONTINUOUS
 62
         7
  5
AB
 10
43.5210711861
 20
55.6676614538
 30
0.0
 11
42.0013167021
 21
55.8006227425
 31
0.0
  0
ARC
  8
0
  6
CONTINUOUS
 62
         7
  5
AC
 10
41.9983826024
 20
55.7670858302
 30
0.0
 40
0.0336650179
 50
85.0
 51
265.0
  0
LINE
  8
0
  6
CONTINUOUS
 62
         7
  5
AD
 10
41.9954485028
 20
55.7335489178
 30
0.0
 11
43.5939056642
 21
55.5937020371
 31
0.0
  0
ARC
  8
0
  6
CONTINUOUS
 62
         7
  5
AE
 10
35.1848266793
 20
47.3853699882
 30
0.0
 40
11.7511414083
 50
14.9056736012
 51
44.3078709625
  0
LINE
  8
0
  6
CONTINUOUS
 62
         7
  5
AF
 10
32.285765518
 20
24.9356618796
 30
0.0
 11
32.2923075459
 21
24.8108325511
 31
0.0
  0
LINE
  8
0
  6
CONTINUOUS
 62
         7
  5
B0
 10
34.5326820104
 20
25.0534173895
 30
0.0
 11
32.285765518
 21
24.9356618796
 31
0.0
  0
ARC
  8
0
  6
CONTINUOUS
 62
         7
  5
B1
 10
26.5017509653
 20
6.0137815567
 30
0.0
 40
5.0915929259
 50
334.6871277729
 51
356.3156905637
  0
ARC
  8
0
  6
CONTINUOUS
 62
         7
  5
B2
 10
28.1239346267
 20
15.2036822982
 30
0.0
 40
10.1261414083
 50
289.9731577878
 51
300.5862362465
  0
LINE
  8
0
  6
CONTINUOUS
 62
         7
  5
B3
 10
34.6424597425
 20
6.5580375052
 30
0.0
 11
33.2764660556
 21
6.4864488096
 31
0.0
  0
ARC
  8
0
  6
CONTINUOUS
 62
         7
  5
B4
 10
34.6408222513
 20
6.5892826986
 30
0.0
 40
0.0312880726
 50
273.0
 51
93.0
  0
LINE
  8
0
  6
CONTINUOUS
 62
         7
  5
B5
 10
33.3908978416
 20
6.5551079467
 30
0.0
 11
34.6391847601
 21
6.620527892
 31
0.0
  0
ARC
  8
0
  6
CONTINUOUS
 62
         7
  5
B6
 10
28.1239346267
 20
15.2036822982
 30
0.0
 40
10.1261414083
 50
301.3413250449
 51
333.2992536016
  0
LINE
  8
0
  6
CONTINUOUS
 62
         7
  5
B7
 10
38.383611188
 20
11.2793083803
 30
0.0
 11
37.1702803626
 21
10.6536967326
 31
0.0
  0
ARC
  8
0
  6
CONTINUOUS
 62
         7
  5
B8
 10
38.3666393354
 20
11.3122241228
 30
0.0
 40
0.0370336318
 50
297.2763135274
 51
117.2763135274
  0
LINE
  8
0
  6
CONTINUOUS
 62
         7
  5
B9
 10
37.2257058337
 20
10.7656083109
 30
0.0
 11
38.3496674828
 21
11.3451398654
 31
0.0
  0
ARC
  8
0
  6
CONTINUOUS
 62
         7
  5
BA
 10
28.1239346267
 20
15.2036822982
 30
0.0
 40
10.1261414083
 50
334.0058811666
 51
9.4417882712
  0
LINE
  8
0
  6
CONTINUOUS
 62
         7
  5
BB
 10
38.1128949552
 20
16.8648299061
 30
0.0
 11
38.8014350598
 21
17.636078275
 31
0.0
  0
ARC
  8
0
  6
CONTINUOUS
 62
         7
  5
BC
 10
38.765668732
 20
17.6680090408
 30
0.0
 40
0.0479458445
 50
318.2427804467
 51
138.2427804467
  0
LINE
  8
0
  6
CONTINUOUS
 62
         7
  5
BD
 10
38.7299024042
 20
17.6999398066
 30
0.0
 11
38.0920774211
 21
16.9854985205
 31
0.0
  0
ARC
  8
0
  6
CONTINUOUS
 62
         7
  5
BE
 10
28.1239346267
 20
15.2036822982
 30
0.0
 40
10.1261414083
 50
10.1346461502
 51
40.7414308019
  0
LINE
  8
0
  6
CONTINUOUS
 62
         7
  5
BF
 10
36.1659746059
 20
22.6192346751
 30
0.0
 11
35.7961332858
 21
21.8124724716
 31
0.0
  0
ARC
  8
0
  6
CONTINUOUS
 62
         7
  5
C0
 10
36.0997981785
 20
22.6495717151
 30
0.0
 40
0.0727987331
 50
335.3720153888
 51
155.3720153887
  0
LINE
  8
0
  6
CONTINUOUS
 62
         7
  5
C1
 10
35.6910217918
 20
21.9325701451
 30
0.0
 11
36.0336217511
 21
22.6799087551
 31
0.0
  0
ARC
  8
0
  6
CONTINUOUS
 62
         7
  5
C2
 10
28.1239346267
 20
15.2036822982
 30
0.0
 40
10.1261414083
 50
41.6444845869
 51
56.69003902
  0
LINE
  8
0
  6
CONTINUOUS
 62
         7
  5
C3
 10
32.2923075459
 20
24.8108325511
 30
0.0
 11
33.6848886302
 21
23.6662191749
 31
0.0
  0
ARC
  8
0
  6
CONTINUOUS
 62
         7
  5
C4
 10
28.1239346267
 20
15.2036822982
 30
0.0
 40
11.7511414083
 50
284.6929541157
 51
56.9498888875
  0
LINE
  8
0
  6
CONTINUOUS
 62
         7
  5
C5
 10
35.7943242463
 20
24.7510008939
 30
0.0
 11
35.8008662741
 21
24.6261715654
 31
0.0
  0
LINE
  8
0
  6
CONTINUOUS
 62
         7
  5
C6
 10
38.0412407387
 20
24.8687564038
 30
0.0
 11
35.7943242463
 21
24.7510008939
 31
0.0
  0
ARC
  8
0
  6
CONTINUOUS
 62
         7
  5
C7
 10
30.0103096936
 20
5.829120571
 30
0.0
 40
5.0915929259
 50
334.6871277729
 51
356.3156905637
  0
ARC
  8
0
  6
CONTINUOUS
 62
         7
  5
C8
 10
31.632493355
 20
15.0190213125
 30
0.0
 40
10.1261414083
 50
289.9731577878
 51
300.5862362465
  0
LINE
  8
0
  6
CONTINUOUS
 62
         7
  5
C9
 10
38.1510184707
 20
6.3733765195
 30
0.0
 11
36.7850247839
 21
6.3017878239
 31
0.0
  0
ARC
  8
0
  6
CONTINUOUS
 62
         7
  5
CA
 10
38.1493809795
 20
6.4046217129
 30
0.0
 40
0.0312880726
 50
273.0
 51
93.0
  0
LINE
  8
0
  6
CONTINUOUS
 62
         7
  5
CB
 10
36.8994565699
 20
6.370446961
 30
0.0
 11
38.1477434883
 21
6.4358669063
 31
0.0
  0
ARC
  8
0
  6
CONTINUOUS
 62
         7
  5
CC
 10
31.632493355
 20
15.0190213125
 30
0.0
 40
10.1261414083
 50
301.3413250449
 51
333.2992536016
  0
LINE
  8
0
  6
CONTINUOUS
 62
         7
  5
CD
 10
41.8921699163
 20
11.0946473946
 30
0.0
 11
40.6788390909
 21
10.4690357469
 31
0.0
  0
ARC
  8
0
  6
CONTINUOUS
 62
         7
  5
CE
 10
41.8751980637
 20
11.1275631371
 30
0.0
 40
0.0370336318
 50
297.2763135274
 51
117.2763135274
  0
LINE
  8
0
  6
CONTINUOUS
 62
         7
  5
CF
 10
40.734264562
 20
10.5809473252
 30
0.0
 11
41.8582262111
 21
11.1604788797
 31
0.0
  0
ARC
  8
0
  6
CONTINUOUS
 62
         7
  5
D0
 10
31.632493355
 20
15.0190213125
 30
0.0
 40
10.1261414083
 50
334.0058811666
 51
9.4417882712
  0
LINE
  8
0
  6
CONTINUOUS
 62
         7
  5
D1
 10
41.6214536835
 20
16.6801689204
 30
0.0
 11
42.309993788
 21
17.4514172893
 31
0.0
  0
ARC
  8
0
  6
CONTINUOUS
 62
         7
  5
D2
 10
42.2742274603
 20
17.4833480551
 30
0.0
 40
0.0479458445
 50
318.2427804467
 51
138.2427804467
  0
LINE
  8
0
  6
CONTINUOUS
 62
         7
  5
D3
 10
42.2384611325
 20
17.5152788209
 30
0.0
 11
41.6006361494
 21
16.8008375348
 31
0.0
  0
ARC
  8
0
  6
CONTINUOUS
 62
         7
  5
D4
 10
31.632493355
 20
15.0190213125
 30
0.0
 40
10.1261414083
 50
10.1346461502
 51
40.7414308019
  0
LINE
  8
0
  6
CONTINUOUS
 62
         7
  5
D5
 10
39.6745333341
 20
22.4345736894
 30
0.0
 11
39.304692014
 21
21.6278114859
 31
0.0
  0
ARC
  8
0
  6
CONTINUOUS
 62
         7
  5
D6
 10
39.6083569068
 20
22.4649107294
 30
0.0
 40
0.0727987331
 50
335.3720153888
 51
155.3720153888
  0
LINE
  8
0
  6
CONTINUOUS
 62
         7
  5
D7
 10
39.19958052
 20
21.7479091594
 30
0.0
 11
39.5421804794
 21
22.4952477694
 31
0.0
  0
ARC
  8
0
  6
CONTINUOUS
 62
         7
  5
D8
 10
31.632493355
 20
15.0190213125
 30
0.0
 40
10.1261414083
 50
41.6444845869
 51
56.69003902
  0
LINE
  8
0
  6
CONTINUOUS
 62
         7
  5
D9
 10
35.8008662741
 20
24.6261715654
 30
0.0
 11
37.1934473585
 21
23.4815581892
 31
0.0
  0
ARC
  8
0
  6
CONTINUOUS
 62
         7
  5
DA
 10
31.632493355
 20
15.0190213125
 30
0.0
 40
11.7511414083
 50
284.6929541157
 51
56.9498888875
  0
LINE
  8
0
  6
CONTINUOUS
 62
         7
  5
DB
 10
39.5798744531
 20
24.658670401
 30
0.0
 11
39.586416481
 21
24.5338410725
 31
0.0
  0
LINE
  8
0
  6
CONTINUOUS
 62
         7
  5
DC
 10
41.8267909455
 20
24.7764259109
 30
0.0
 11
39.5798744531
 21
24.658670401
 31
0.0
  0
ARC
  8
0
  6
CONTINUOUS
 62
         7
  5
DD
 10
33.7958599004
 20
5.7367900782
 30
0.0
 40
5.0915929259
 50
334.6871277729
 51
356.3156905637
  0
ARC
  8
0
  6
CONTINUOUS
 62
         7
  5
DE
 10
35.4180435618
 20
14.9266908196
 30
0.0
 40
10.1261414083
 50
289.9731577878
 51
300.5862362465
  0
LINE
  8
0
  6
CONTINUOUS
 62
         7
  5
DF
 10
41.9365686775
 20
6.2810460267
 30
0.0
 11
40.5705749907
 21
6.209457331
 31
0.0
  0
ARC
  8
0
  6
CONTINUOUS
 62
         7
  5
E0
 10
41.9349311863
 20
6.31229122
 30
0.0
 40
0.0312880726
 50
273.0
 51
93.0
  0
LINE
  8
0
  6
CONTINUOUS
 62
         7
  5
E1
 10
40.6850067767
 20
6.2781164681
 30
0.0
 11
41.9332936951
 21
6.3435364134
 31
0.0
  0
ARC
  8
0
  6
CONTINUOUS
 62
         7
  5
E2
 10
35.4180435618
 20
14.9266908196
 30
0.0
 40
10.1261414083
 50
301.3413250449
 51
333.2992536016
  0
LINE
  8
0
  6
CONTINUOUS
 62
         7
  5
E3
 10
45.6777201231
 20
11.0023169018
 30
0.0
 11
44.4643892977
 21
10.3767052541
 31
0.0
  0
ARC
  8
0
  6
CONTINUOUS
 62
         7
  5
E4
 10
45.6607482705
 20
11.0352326443
 30
0.0
 40
0.0370336318
 50
297.2763135274
 51
117.2763135274
  0
LINE
  8
0
  6
CONTINUOUS
 62
         7
  5
E5
 10
44.5198147688
 20
10.4886168324
 30
0.0
 11
45.6437764179
 21
11.0681483868
 31
0.0
  0
ARC
  8
0
  6
CONTINUOUS
 62
         7
  5
E6
 10
35.4180435618
 20
14.9266908196
 30
0.0
 40
10.1261414083
 50
334.0058811666
 51
9.4417882712
  0
LINE
  8
0
  6
CONTINUOUS
 62
         7
  5
E7
 10
45.4070038903
 20
16.5878384276
 30
0.0
 11
46.0955439948
 21
17.3590867964
 31
0.0
  0
ARC
  8
0
  6
CONTINUOUS
 62
         7
  5
E8
 10
46.0597776671
 20
17.3910175623
 30
0.0
 40
0.0479458445
 50
318.2427804467
 51
138.2427804467
  0
LINE
  8
0
  6
CONTINUOUS
 62
         7
  5
E9
 10
46.0240113393
 20
17.4229483281
 30
0.0
 11
45.3861863562
 21
16.7085070419
 31
0.0
  0
ARC
  8
0
  6
CONTINUOUS
 62
         7
  5
EA
 10
35.4180435618
 20
14.9266908196
 30
0.0
 40
10.1261414083
 50
10.1346461502
 51
40.7414308019
  0
LINE
  8
0
  6
CONTINUOUS
 62
         7
  5
EB
 10
43.460083541
 20
22.3422431965
 30
0.0
 11
43.0902422208
 21
21.535480993
 31
0.0
  0
ARC
  8
0
  6
CONTINUOUS
 62
         7
  5
EC
 10
43.3939071136
 20
22.3725802366
 30
0.0
 40
0.0727987331
 50
335.3720153888
 51
155.3720153888
  0
LINE
  8
0
  6
CONTINUOUS
 62
         7
  5
ED
 10
42.9851307269
 20
21.6555786665
 30
0.0
 11
43.3277306862
 21
22.4029172766
 31
0.0
  0
ARC
  8
0
  6
CONTINUOUS
 62
         7
  5
EE
 10
35.4180435618
 20
14.9266908196
 30
0.0
 40
10.1261414083
 50
41.6444845869
 51
56.69003902
  0
LINE
  8
0
  6
CONTINUOUS
 62
         7
  5
EF
 10
39.586416481
 20
24.5338410725
 30
0.0
 11
40.9789975653
 21
23.3892276964
 31
0.0
  0
ARC
  8
0
  6
CONTINUOUS
 62
         7
  5
F0
 10
35.4180435618
 20
14.9266908196
 30
0.0
 40
11.7511414083
 50
284.6929541157
 51
56.9498888875
  0
LINE
  8
0
  6
CONTINUOUS
 62
         7
  5
F1
 10
35.2568131684
 20
67.5446953373
 30
0.0
 11
34.6020046984
 21
66.652508813
 31
0.0
  0
ARC
  8
0
  6
CONTINUOUS
 62
         7
  5
F2
 10
34.6318602108
 20
66.6305967555
 30
0.0
 40
0.0370336318
 50
143.7236864726
 51
323.7236864726
  0
LINE
  8
0
  6
CONTINUOUS
 62
         7
  5
F3
 10
34.6617157232
 20
66.608684698
 30
0.0
 11
35.3587431559
 21
67.5583952025
 31
0.0
  0
ARC
  8
0
  6
CONTINUOUS
 62
         7
  5
F4
 10
36.8730960468
 20
55.9052385607
 30
0.0
 40
11.7511414083
 50
65.4385360035
 51
97.4042167057
  0
LINE
  8
0
  6
CONTINUOUS
 62
         7
  5
F5
 10
40.9458742611
 20
66.0707706817
 30
0.0
 11
41.757683172
 21
66.5930883451
 31
0.0
  0
ARC
  8
0
  6
CONTINUOUS
 62
         7
  5
F6
 10
40.9718168198
 20
66.0304496245
 30
0.0
 40
0.0479458445
 50
122.7572195533
 51
302.7572195533
  0
LINE
  8
0
  6
CONTINUOUS
 62
         7
  5
F7
 10
41.8607540735
 20
66.5453791521
 30
0.0
 11
40.9977593786
 21
65.9901285674
 31
0.0
  0
ARC
  8
0
  6
CONTINUOUS
 62
         7
  5
F8
 10
36.8730960468
 20
55.9052385607
 30
0.0
 40
11.7511414083
 50
36.6749951142
 51
64.8847584024
  0
LINE
  8
0
  6
CONTINUOUS
 62
         7
  5
F9
 10
46.2979389863
 20
62.9239036733
 30
0.0
 11
45.4554028906
 21
62.6882197137
 31
0.0
  0
ARC
  8
0
  6
CONTINUOUS
 62
         7
  5
FA
 10
45.4750141573
 20
62.6181122693
 30
0.0
 40
0.0727987331
 50
105.6279846112
 51
285.6279846112
  0
LINE
  8
0
  6
CONTINUOUS
 62
         7
  5
FB
 10
45.494625424
 20
62.5480048249
 30
0.0
 11
46.390053842
 21
62.7984844378
 31
0.0
  0
ARC
  8
0
  6
CONTINUOUS
 62
         7
  5
FC
 10
36.8730960468
 20
55.9052385607
 30
0.0
 40
11.7511414083
 50
24.0501111125
 51
35.9162617761
  0
LINE
  8
0
  6
CONTINUOUS
 62
         7
  5
FD
 10
47.604113523
 20
60.6942455896
 30
0.0
 11
47.0654715176
 21
58.1601323018
 31
0.0
  0
LINE
  8
0
  6
CONTINUOUS
 62
         7
  5
FE
 10
47.0654715176
 20
58.1601323018
 30
0.0
 11
46.7464765055
 21
58.153593101
 31
0.0
  0
ARC
  8
0
  6
CONTINUOUS
 62
         7
  5
FF
 10
36.8730960468
 20
55.9052385607
 30
0.0
 40
10.1261414083
 50
12.8285675471
 51
151.0268422122
  0
ARC
  8
0
  6
CONTINUOUS
 62
         7
  5
100
 10
27.538304028
 20
55.2638130175
 30
0.0
 40
5.5669117522
 50
85.0952265888
 51
90.4390730974
  0
LINE
  8
0
  6
CONTINUOUS
 62
         7
  5
101
 10
27.495643691
 20
60.83056131
 30
0.0
 11
27.1359105773
 21
62.4837295373
 31
0.0
  0
ARC
  8
0
  6
CONTINUOUS
 62
         7
  5
102
 10
36.8730960468
 20
55.9052385607
 30
0.0
 40
11.7511414083
 50
127.8139865811
 51
145.9568437605
  0
LINE
  8
0
  6
CONTINUOUS
 62
         7
  5
103
 10
29.6684721704
 20
65.1887033878
 30
0.0
 11
29.3512904739
 21
63.6964808282
 31
0.0
  0
ARC
  8
0
  6
CONTINUOUS
 62
         7
  5
104
 10
29.3842198304
 20
63.6894814774
 30
0.0
 40
0.0336650179
 50
168.0
 51
348.0
  0
LINE
  8
0
  6
CONTINUOUS
 62
         7
  5
105
 10
29.4171491868
 20
63.6824821266
 30
0.0
 11
29.7507565949
 21
65.2519815832
 31
0.0
  0
ARC
  8
0
  6
CONTINUOUS
 62
         7
  5
106
 10
36.8730960468
 20
55.9052385607
 30
0.0
 40
11.7511414083
 50
97.9056736012
 51
127.3078709625
  0
LINE
  8
0
  6
CONTINUOUS
 62
         7
  5
107
 10
35.0087409949
 20
71.4715027047
 30
0.0
 11
34.3854682771
 21
70.5570071903
 31
0.0
  0
ARC
  8
0
  6
CONTINUOUS
 62
         7
  5
108
 10
34.4160703222
 20
70.5361504234
 30
0.0
 40
0.0370336318
 50
145.7236864726
 51
325.7236864726
  0
LINE
  8
0
  6
CONTINUOUS
 62
         7
  5
109
 10
34.4466723672
 20
70.5152936565
 30
0.0
 11
35.110130771
 21
71.4887515296
 31
0.0
  0
ARC
  8
0
  6
CONTINUOUS
 62
         7
  5
10A
 10
37.0302504608
 20
59.8955438297
 30
0.0
 40
11.7511414083
 50
67.4385360035
 51
99.4042167057
  0
LINE
  8
0
  6
CONTINUOUS
 62
         7
  5
10B
 10
40.7457756939
 20
70.197021293
 30
0.0
 11
41.5388614493
 21
70.747352497
 31
0.0
  0
ARC
  8
0
  6
CONTINUOUS
 62
         7
  5
10C
 10
40.7731096337
 20
70.1576301806
 30
0.0
 40
0.0479458445
 50
124.7572195533
 51
304.7572195533
  0
LINE
  8
0
  6
CONTINUOUS
 62
         7
  5
10D
 10
41.6435345896
 20
70.7032694898
 30
0.0
 11
40.8004435736
 21
70.1182390682
 31
0.0
  0
ARC
  8
0
  6
CONTINUOUS
 62
         7
  5
10E
 10
37.0302504608
 20
59.8955438297
 30
0.0
 40
11.7511414083
 50
38.6749951142
 51
66.8847584024
  0
LINE
  8
0
  6
CONTINUOUS
 62
         7
  5
10F
 10
46.2044041607
 20
67.2388556362
 30
0.0
 11
45.3706065667
 21
66.9739111632
 31
0.0
  0
ARC
  8
0
  6
CONTINUOUS
 62
         7
  5
110
 10
45.3926526013
 20
66.9045308497
 30
0.0
 40
0.0727987331
 50
107.6279846112
 51
287.6279846112
  0
LINE
  8
0
  6
CONTINUOUS
 62
         7
  5
111
 10
45.4146986359
 20
66.8351505362
 30
0.0
 11
46.3008399707
 21
67.1167275648
 31
0.0
  0
ARC
  8
0
  6
CONTINUOUS
 62
         7
  5
112
 10
37.0302504608
 20
59.8955438297
 30
0.0
 40
11.7511414083
 50
26.0501111125
 51
37.9162617761
  0
LINE
  8
0
  6
CONTINUOUS
 62
         7
  5
113
 10
47.5875969561
 20
65.0561406339
 30
0.0
 11
47.1377223552
 21
62.5047727245
 31
0.0
  0
LINE
  8
0
  6
CONTINUOUS
 62
         7
  5
114
 10
47.1377223552
 20
62.5047727245
 30
0.0
 11
46.819149881
 21
62.4871047419
 31
0.0
  0
ARC
  8
0
  6
CONTINUOUS
 62
         7
  5
115
 10
37.0302504608
 20
59.8955438297
 30
0.0
 40
10.1261414083
 50
14.8285675471
 51
153.0268422122
  0
ARC
  8
0
  6
CONTINUOUS
 62
         7
  5
116
 10
27.7235303737
 20
58.9287294823
 30
0.0
 40
5.5669117521
 50
87.0952265888
 51
92.4390730974
  0
LINE
  8
0
  6
CONTINUOUS
 62
         7
  5
117
 10
27.4866193105
 20
64.4905978378
 30
0.0
 11
27.0694105974
 21
66.1302044951
 31
0.0
  0
ARC
  8
0
  6
CONTINUOUS
 62
         7
  5
118
 10
37.0302504608
 20
59.8955438297
 30
0.0
 40
11.7511414083
 50
129.8139865811
 51
147.9568437605
  0
LINE
  8
0
  6
CONTINUOUS
 62
         7
  5
119
 10
29.5060271965
 20
68.9219156736
 30
0.0
 11
29.2411165348
 21
67.4195326541
 31
0.0
  0
ARC
  8
0
  6
CONTINUOUS
 62
         7
  5
11A
 10
29.2742701054
 20
67.4136867851
 30
0.0
 40
0.0336650179
 50
170.0
 51
350.0
  0
LINE
  8
0
  6
CONTINUOUS
 62
         7
  5
11B
 10
29.3074236761
 20
67.4078409161
 30
0.0
 11
29.5860531184
 21
68.9880270066
 31
0.0
  0
ARC
  8
0
  6
CONTINUOUS
 62
         7
  5
11C
 10
37.0302504608
 20
59.8955438297
 30
0.0
 40
11.7511414083
 50
99.9056736012
 51
129.3078709625
  0
ENDSEC
  0
EOF
