  0
SECTION
  2
HEADER
  9
$ACADVER
  1
AC1009
  9
$DWGCODEPAGE
  3
ansi_1252
  9
$INSBASE
 10
0.0
 20
0.0
 30
0.0
  9
$EXTMIN
 10
0.0
 20
0.0
 30
0.0
  9
$EXTMAX
 10
48.0
 20
72.0
 30
0.0
  9
$LIMMIN
 10
0.0
 20
0.0
  9
$LIMMAX
 10
0.0
 20
0.0
  9
$ORTHOMODE
 70
         0
  9
$REGENMODE
 70
         1
  9
$FILLMODE
 70
         1
  9
$QTEXTMODE
 70
         0
  9
$MIRRTEXT
 70
         1
  9
$DRAGMODE
 70
         2
  9
$LTSCALE
 40
1.0
  9
$OSMODE
 70
         0
  9
$ATTMODE
 70
         1
  9
$TEXTSIZE
 40
0.1377952756
  9
$TRACEWID
 40
0.05
  9
$TEXTSTYLE
  7
STANDARD
  9
$CLAYER
  8
0
  9
$CELTYPE
  6
CONTINUOUS
  9
$CECOLOR
 62
       256
  9
$DIMSCALE
 40
1.0
  9
$DIMASZ
 40
0.0
  9
$DIMEXO
 40
0.0
  9
$DIMDLI
 40
0.38
  9
$DIMRND
 40
0.0
  9
$DIMDLE
 40
0.0
  9
$DIMEXE
 40
0.18
  9
$DIMTP
 40
0.0
  9
$DIMTM
 40
0.0
  9
$DIMTXT
 40
0.1377952756
  9
$DIMCEN
 40
0.09
  9
$DIMTSZ
 40
0.0
  9
$DIMTOL
 70
         0
  9
$DIMLIM
 70
         0
  9
$DIMTIH
 70
         1
  9
$DIMTOH
 70
         1
  9
$DIMSE1
 70
         0
  9
$DIMSE2
 70
         0
  9
$DIMTAD
 70
         1
  9
$DIMZIN
 70
         0
  9
$DIMBLK
  1

  9
$DIMASO
 70
         1
  9
$DIMSHO
 70
         1
  9
$DIMPOST
  1

  9
$DIMAPOST
  1

  9
$DIMALT
 70
         0
  9
$DIMALTD
 70
         2
  9
$DIMALTF
 40
25.4
  9
$DIMLFAC
 40
1.0
  9
$DIMTOFL
 70
         0
  9
$DIMTVP
 40
0.0
  9
$DIMTIX
 70
         0
  9
$DIMSOXD
 70
         0
  9
$DIMSAH
 70
         0
  9
$DIMBLK1
  1

  9
$DIMBLK2
  1

  9
$DIMSTYLE
  2
STANDARD
  9
$DIMCLRD
 70
         0
  9
$DIMCLRE
 70
         0
  9
$DIMCLRT
 70
         0
  9
$DIMTFAC
 40
1.0
  9
$DIMGAP
 40
0.0
  9
$LUNITS
 70
         2
  9
$LUPREC
 70
         2
  9
$AXISMODE
 70
         0
  9
$AXISUNIT
 10
0.0
 20
0.0
  9
$SKETCHINC
 40
0.1
  9
$FILLETRAD
 40
0.0
  9
$AUNITS
 70
         0
  9
$AUPREC
 70
         2
  9
$MENU
  1
acad
  9
$ELEVATION
 40
0.0
  9
$PELEVATION
 40
0.0
  9
$THICKNESS
 40
0.0
  9
$LIMCHECK
 70
         0
  9
$BLIPMODE
 70
         1
  9
$CHAMFERA
 40
0.0
  9
$CHAMFERB
 40
0.0
  9
$SKPOLY
 70
         0
  9
$TDCREATE
 40
0.000000000
  9
$TDUPDATE
 40
0.000000000
  9
$TDINDWG
 40
0.0000000000
  9
$TDUSRTIMER
 40
0.0000000000
  9
$USRTIMER
 70
         1
  9
$ANGBASE
 50
0.0
  9
$ANGDIR
 70
         0
  9
$PDMODE
 70
         0
  9
$PDSIZE
 40
-1.0
  9
$PLINEWID
 40
0.0
  9
$COORDS
 70
         0
  9
$SPLFRAME
 70
         0
  9
$SPLINETYPE
 70
         6
  9
$SPLINESEGS
 70
         8
  9
$ATTDIA
 70
         0
  9
$ATTREQ
 70
         1
  9
$HANDLING
 70
         1
  9
$HANDSEED
  5
11A
  9
$SURFTAB1
 70
         6
  9
$SURFTAB2
 70
         6
  9
$SURFTYPE
 70
         6
  9
$SURFU
 70
         6
  9
$SURFV
 70
         6
  9
$UCSNAME
  2

  9
$UCSORG
 10
0.0
 20
0.0
 30
0.0
  9
$UCSXDIR
 10
1.0
 20
0.0
 30
0.0
  9
$UCSYDIR
 10
0.0
 20
1.0
 30
0.0
  9
$PUCSNAME
  2

  9
$PUCSORG
 10
0.0
 20
0.0
 30
0.0
  9
$PUCSXDIR
 10
1.0
 20
0.0
 30
0.0
  9
$PUCSYDIR
 10
0.0
 20
1.0
 30
0.0
  9
$USERI1
 70
         0
  9
$USERI2
 70
         0
  9
$USERI3
 70
         0
  9
$USERI4
 70
         0
  9
$USERI5
 70
         0
  9
$USERR1
 40
0.0
  9
$USERR2
 40
0.0
  9
$USERR3
 40
0.0
  9
$USERR4
 40
0.0
  9
$USERR5
 40
0.0
  9
$WORLDVIEW
 70
         1
  9
$SHADEDGE
 70
         3
  9
$SHADEDIF
 70
        70
  9
$TILEMODE
 70
         1
  9
$MAXACTVP
 70
        16
  9
$PINSBASE
 10
0.0
 20
0.0
 30
0.0
  9
$PLIMCHECK
 70
         0
  9
$PEXTMIN
 10
1.0000000000E+20
 20
1.0000000000E+20
 30
1.0000000000E+20
  9
$PEXTMAX
 10
-1.0000000000E+20
 20
-1.0000000000E+20
 30
-1.0000000000E+20
  9
$PLIMMIN
 10
0.0
 20
0.0
  9
$PLIMMAX
 10
12.0
 20
9.0
  9
$UNITMODE
 70
         0
  9
$VISRETAIN
 70
         0
  9
$PLINEGEN
 70
         1
  9
$PSLTSCALE
 70
         1
  9
$TREEDEPTH
 70
      3020
  0
ENDSEC
  0
SECTION
  2
TABLES
  0
TABLE
  2
VPORT
 70
         1
  0
VPORT
  2
*ACTIVE
 70
         0
 10
0.0
 20
0.0
 11
1.0
 21
1.0
 12
24.0
 22
36.0
 13
0.0
 23
0.0
 14
1.0
 24
1.0
 15
0.0
 25
0.0
 16
0.0
 26
0.0
 36
1.0
 17
0.0
 27
0.0
 37
0.0
 40
72.0
 41
1.5
 42
50.0
 43
0.0
 44
0.0
 50
0.0
 51
0.0
 71
         0
 72
      2000
 73
         1
 74
         1
 75
         0
 76
         0
 77
         0
 78
         0
  0
ENDTAB
  0
TABLE
  2
LTYPE
 70
         6
  0
LTYPE
  2
CONTINUOUS
 70
        64
  3
Solid line
 72
        65
 73
         0
 40
0.0
  0
LTYPE
  2
HIDDEN
 70
        64
  3
Hidden __ __ __ __ __ __ __ __ __ __ __ __ __ __
 72
        65
 73
         2
 40
0.075
 49
0.05
 49
-0.025
  0
LTYPE
  2
PHANTOM
 70
        64
  3
Phantom ______  __  __  ______  __  __  ______
 72
        65
 73
         6
 40
0.5
 49
0.25
 49
-0.05
 49
0.05
 49
-0.05
 49
0.05
 49
-0.05
  0
LTYPE
  2
CENTER
 70
        64
  3
Center ____ _ ____ _ ____ _ ____ _ ____ _ ____
 72
        65
 73
         4
 40
0.4
 49
0.25
 49
-0.05
 49
0.05
 49
-0.05
  0
LTYPE
  2
CENTERX2
 70
        64
  3
Center (2x) ________  __  ________  __  _____
 72
        65
 73
         4
 40
0.8
 49
0.5
 49
-0.1
 49
0.1
 49
-0.1
  0
LTYPE
  2
DOT2
 70
        64
  3
Dot (.5x) ........................................
 72
        65
 73
         2
 40
0.025
 49
0.0
 49
-0.025
  0
ENDTAB
  0
TABLE
  2
LAYER
 70
         2
  0
LAYER
  2
0
 70
         0
 62
         7
  6
CONTINUOUS
  0
LAYER
  2
DEFPOINTS
 70
         0
 62
         7
  6
CONTINUOUS
  0
ENDTAB
  0
TABLE
  2
STYLE
 70
         1
  0
STYLE
  2
STANDARD
 70
         0
 40
0.0
 41
1.0
 50
0.0
 71
         0
 42
0.0
  3
txt
  4

  0
ENDTAB
  0
TABLE
  2
VIEW
 70
         0
  0
ENDTAB
  0
TABLE
  2
UCS
 70
         0
  0
ENDTAB
  0
TABLE
  2
APPID
 70
         1
  0
APPID
  2
ACAD
 70
         0
  0
ENDTAB
  0
TABLE
  2
DIMSTYLE
 70
         1
  0
DIMSTYLE
  2
STANDARD
 70
         0
  3

  4

  5

  6

  7

 40
1.0
 41
0.18
 42
0.0625
 43
0.38
 44
0.18
 45
0.0
 46
0.0
 47
0.0
 48
0.0
 71
         0
 72
         0
 73
         1
 74
         1
 75
         0
 76
         0
 77
         0
 78
         0
140
0.18
141
0.09
142
0.0
143
25.4
144
1.0
145
0.0
146
1.0
147
0.09
170
         0
171
         2
172
         0
173
         0
174
         0
175
         0
176
         0
177
         0
178
         0
  0
ENDTAB
  0
ENDSEC
  0
SECTION
  2
BLOCKS
  0
ENDSEC
  0
SECTION
  2
ENTITIES
  0
LINE
  8
0
  6
CONTINUOUS
 62
         7
  5
24
 10
4.0335391198
 20
57.7880384768
 30
0.0
 11
4.1542804639
 21
57.8203910224
 31
0.0
  0
LINE
  8
0
  6
CONTINUOUS
 62
         7
  5
25
 10
3.4511966432
 20
59.9613717057
 30
0.0
 11
4.0335391198
 21
57.7880384768
 31
0.0
  0
ARC
  8
0
  6
CONTINUOUS
 62
         7
  5
26
 10
23.7444952043
 20
56.0644986508
 30
0.0
 40
5.0915929259
 50
76.6871277729
 51
98.3156905637
  0
ARC
  8
0
  6
CONTINUOUS
 62
         7
  5
27
 10
14.4181448952
 20
55.7405459056
 30
0.0
 40
10.1261414083
 50
31.9731577878
 51
42.5862362465
  0
LINE
  8
0
  6
CONTINUOUS
 62
         7
  5
28
 10
21.5195840278
 20
63.914156235
 30
0.0
 11
21.8736143958
 21
62.5928969143
 31
0.0
  0
ARC
  8
0
  6
CONTINUOUS
 62
         7
  5
29
 10
21.4893620704
 20
63.9060582859
 30
0.0
 40
0.0312880726
 50
15.0
 51
195.0
  0
LINE
  8
0
  6
CONTINUOUS
 62
         7
  5
2A
 10
21.7826639194
 20
62.690553054
 30
0.0
 11
21.459140113
 21
63.8979603368
 31
0.0
  0
ARC
  8
0
  6
CONTINUOUS
 62
         7
  5
2B
 10
14.4181448952
 20
55.7405459056
 30
0.0
 40
10.1261414083
 50
43.3413250449
 51
75.2992536016
  0
LINE
  8
0
  6
CONTINUOUS
 62
         7
  5
2C
 10
16.1236551263
 20
66.591947135
 30
0.0
 11
16.9878613219
 21
65.5352024747
 31
0.0
  0
ARC
  8
0
  6
CONTINUOUS
 62
         7
  5
2D
 10
16.0949873182
 20
66.5685025904
 30
0.0
 40
0.0370336318
 50
39.2763135274
 51
219.2763135274
  0
LINE
  8
0
  6
CONTINUOUS
 62
         7
  5
2E
 10
16.8668716766
 20
65.5661490408
 30
0.0
 11
16.0663195102
 21
66.5450580458
 31
0.0
  0
ARC
  8
0
  6
CONTINUOUS
 62
         7
  5
2F
 10
14.4181448952
 20
55.7405459056
 30
0.0
 40
10.1261414083
 50
76.0058811666
 51
111.4417882712
  0
LINE
  8
0
  6
CONTINUOUS
 62
         7
  5
30
 10
10.7164757166
 20
65.1658514769
 30
0.0
 11
9.8189254377
 21
65.6789937757
 31
0.0
  0
ARC
  8
0
  6
CONTINUOUS
 62
         7
  5
31
 10
9.7951286734
 20
65.6373702485
 30
0.0
 40
0.0479458445
 50
60.2427804467
 51
240.2427804467
  0
LINE
  8
0
  6
CONTINUOUS
 62
         7
  5
32
 10
9.7713319091
 20
65.5957467213
 30
0.0
 11
10.6027722097
 21
65.1204004402
 31
0.0
  0
ARC
  8
0
  6
CONTINUOUS
 62
         7
  5
33
 10
14.4181448952
 20
55.7405459056
 30
0.0
 40
10.1261414083
 50
112.1346461502
 51
142.7414308019
  0
LINE
  8
0
  6
CONTINUOUS
 62
         7
  5
34
 10
5.4926059999
 20
62.0650679832
 30
0.0
 11
6.3586328479
 21
61.8710438771
 31
0.0
  0
ARC
  8
0
  6
CONTINUOUS
 62
         7
  5
35
 10
5.4766907499
 20
61.9940302442
 30
0.0
 40
0.0727987331
 50
77.3720153888
 51
257.3720153888
  0
LINE
  8
0
  6
CONTINUOUS
 62
         7
  5
36
 10
6.2630135051
 20
61.7432596111
 30
0.0
 11
5.4607754999
 21
61.9229925053
 31
0.0
  0
ARC
  8
0
  6
CONTINUOUS
 62
         7
  5
37
 10
14.4181448952
 20
55.7405459056
 30
0.0
 40
10.1261414083
 50
143.6444845869
 51
158.69003902
  0
LINE
  8
0
  6
CONTINUOUS
 62
         7
  5
38
 10
4.1542804639
 20
57.8203910224
 30
0.0
 11
4.9843474037
 21
59.4205193713
 31
0.0
  0
ARC
  8
0
  6
CONTINUOUS
 62
         7
  5
39
 10
14.4181448952
 20
55.7405459056
 30
0.0
 40
11.7511414083
 50
26.6929541157
 51
158.9498888875
  0
LINE
  8
0
  6
CONTINUOUS
 62
         7
  5
3A
 10
3.6507143646
 20
61.6371105315
 30
0.0
 11
3.7714557086
 21
61.6694630771
 31
0.0
  0
LINE
  8
0
  6
CONTINUOUS
 62
         7
  5
3B
 10
3.068371888
 20
63.8104437605
 30
0.0
 11
3.6507143646
 21
61.6371105315
 31
0.0
  0
ARC
  8
0
  6
CONTINUOUS
 62
         7
  5
3C
 10
23.3616704491
 20
59.9135707056
 30
0.0
 40
5.0915929259
 50
76.6871277729
 51
98.3156905637
  0
ARC
  8
0
  6
CONTINUOUS
 62
         7
  5
3D
 10
14.03532014
 20
59.5896179603
 30
0.0
 40
10.1261414083
 50
31.9731577878
 51
42.5862362465
  0
LINE
  8
0
  6
CONTINUOUS
 62
         7
  5
3E
 10
21.1367592726
 20
67.7632282897
 30
0.0
 11
21.4907896406
 21
66.441968969
 31
0.0
  0
ARC
  8
0
  6
CONTINUOUS
 62
         7
  5
3F
 10
21.1065373152
 20
67.7551303407
 30
0.0
 40
0.0312880726
 50
15.0
 51
195.0
  0
LINE
  8
0
  6
CONTINUOUS
 62
         7
  5
40
 10
21.3998391642
 20
66.5396251087
 30
0.0
 11
21.0763153578
 21
67.7470323916
 31
0.0
  0
ARC
  8
0
  6
CONTINUOUS
 62
         7
  5
41
 10
14.03532014
 20
59.5896179603
 30
0.0
 40
10.1261414083
 50
43.3413250449
 51
75.2992536016
  0
LINE
  8
0
  6
CONTINUOUS
 62
         7
  5
42
 10
15.740830371
 20
70.4410191897
 30
0.0
 11
16.6050365666
 21
69.3842745294
 31
0.0
  0
ARC
  8
0
  6
CONTINUOUS
 62
         7
  5
43
 10
15.712162563
 20
70.4175746451
 30
0.0
 40
0.0370336318
 50
39.2763135274
 51
219.2763135274
  0
LINE
  8
0
  6
CONTINUOUS
 62
         7
  5
44
 10
16.4840469214
 20
69.4152210955
 30
0.0
 11
15.683494755
 21
70.3941301006
 31
0.0
  0
ARC
  8
0
  6
CONTINUOUS
 62
         7
  5
45
 10
14.03532014
 20
59.5896179603
 30
0.0
 40
10.1261414083
 50
76.0058811666
 51
111.4417882712
  0
LINE
  8
0
  6
CONTINUOUS
 62
         7
  5
46
 10
10.3336509614
 20
69.0149235316
 30
0.0
 11
9.4361006825
 21
69.5280658305
 31
0.0
  0
ARC
  8
0
  6
CONTINUOUS
 62
         7
  5
47
 10
9.4123039182
 20
69.4864423033
 30
0.0
 40
0.0479458445
 50
60.2427804467
 51
240.2427804467
  0
LINE
  8
0
  6
CONTINUOUS
 62
         7
  5
48
 10
9.3885071539
 20
69.4448187761
 30
0.0
 11
10.2199474545
 21
68.969472495
 31
0.0
  0
ARC
  8
0
  6
CONTINUOUS
 62
         7
  5
49
 10
14.03532014
 20
59.5896179603
 30
0.0
 40
10.1261414083
 50
112.1346461502
 51
142.7414308019
  0
LINE
  8
0
  6
CONTINUOUS
 62
         7
  5
4A
 10
5.1097812447
 20
65.9141400379
 30
0.0
 11
5.9758080926
 21
65.7201159318
 31
0.0
  0
ARC
  8
0
  6
CONTINUOUS
 62
         7
  5
4B
 10
5.0938659947
 20
65.843102299
 30
0.0
 40
0.0727987331
 50
77.3720153888
 51
257.3720153888
  0
LINE
  8
0
  6
CONTINUOUS
 62
         7
  5
4C
 10
5.8801887499
 20
65.5923316658
 30
0.0
 11
5.0779507447
 21
65.77206456
 31
0.0
  0
ARC
  8
0
  6
CONTINUOUS
 62
         7
  5
4D
 10
14.03532014
 20
59.5896179603
 30
0.0
 40
10.1261414083
 50
143.6444845869
 51
158.69003902
  0
LINE
  8
0
  6
CONTINUOUS
 62
         7
  5
4E
 10
3.7714557086
 20
61.6694630771
 30
0.0
 11
4.6015226484
 21
63.269591426
 31
0.0
  0
ARC
  8
0
  6
CONTINUOUS
 62
         7
  5
4F
 10
14.03532014
 20
59.5896179603
 30
0.0
 40
11.7511414083
 50
26.6929541157
 51
158.9498888875
  0
LINE
  8
0
  6
CONTINUOUS
 62
         7
  5
50
 10
6.5471188053
 20
8.1463484449
 30
0.0
 11
6.6709029452
 21
8.1637451712
 31
0.0
  0
LINE
  8
0
  6
CONTINUOUS
 62
         7
  5
51
 10
6.2339797149
 20
10.3744516728
 30
0.0
 11
6.5471188053
 21
8.1463484449
 31
0.0
  0
ARC
  8
0
  6
CONTINUOUS
 62
         7
  5
52
 10
25.9011057453
 20
4.0334943476
 30
0.0
 40
5.0915929259
 50
69.6871277729
 51
91.3156905637
  0
ARC
  8
0
  6
CONTINUOUS
 62
         7
  5
53
 10
16.6047927288
 20
4.8485524855
 30
0.0
 40
10.1261414083
 50
24.9731577878
 51
35.5862362465
  0
LINE
  8
0
  6
CONTINUOUS
 62
         7
  5
54
 10
24.649411335
 20
12.0957902386
 30
0.0
 11
24.8397818085
 21
10.7412339361
 31
0.0
  0
ARC
  8
0
  6
CONTINUOUS
 62
         7
  5
55
 10
24.6184277558
 20
12.0914357805
 30
0.0
 40
0.0312880726
 50
8.0000000001
 51
188.0
  0
LINE
  8
0
  6
CONTINUOUS
 62
         7
  5
56
 10
24.7614105528
 20
10.8492462365
 30
0.0
 11
24.5874441766
 21
12.0870813224
 31
0.0
  0
ARC
  8
0
  6
CONTINUOUS
 62
         7
  5
57
 10
16.6047927288
 20
4.8485524855
 30
0.0
 40
10.1261414083
 50
36.3413250449
 51
68.2992536016
  0
LINE
  8
0
  6
CONTINUOUS
 62
         7
  5
58
 10
19.620043488
 20
15.4112196036
 30
0.0
 11
20.3490232438
 21
14.2570315161
 31
0.0
  0
ARC
  8
0
  6
CONTINUOUS
 62
         7
  5
59
 10
19.5887321943
 20
15.391443538
 30
0.0
 40
0.0370336318
 50
32.2763135274
 51
212.2763135274
  0
LINE
  8
0
  6
CONTINUOUS
 62
         7
  5
5A
 10
20.2327068747
 20
14.3024923398
 30
0.0
 11
19.5574209005
 21
15.3716674725
 31
0.0
  0
ARC
  8
0
  6
CONTINUOUS
 62
         7
  5
5B
 10
16.6047927288
 20
4.8485524855
 30
0.0
 40
10.1261414083
 50
69.0058811666
 51
104.4417882712
  0
LINE
  8
0
  6
CONTINUOUS
 62
         7
  5
5C
 10
14.0793710323
 20
14.6547232506
 30
0.0
 11
13.2510472721
 21
15.2734245277
 31
0.0
  0
ARC
  8
0
  6
CONTINUOUS
 62
         7
  5
5D
 10
13.2223552533
 20
15.235011352
 30
0.0
 40
0.0479458445
 50
53.2427804467
 51
233.2427804467
  0
LINE
  8
0
  6
CONTINUOUS
 62
         7
  5
5E
 10
13.1936632346
 20
15.1965981763
 30
0.0
 11
13.9609759661
 21
14.6234679708
 31
0.0
  0
ARC
  8
0
  6
CONTINUOUS
 62
         7
  5
5F
 10
16.6047927288
 20
4.8485524855
 30
0.0
 40
10.1261414083
 50
105.1346461502
 51
135.7414308019
  0
LINE
  8
0
  6
CONTINUOUS
 62
         7
  5
60
 10
8.5165487999
 20
12.2136820993
 30
0.0
 11
9.3524748246
 21
11.9155620961
 31
0.0
  0
ARC
  8
0
  6
CONTINUOUS
 62
         7
  5
61
 10
8.4920948571
 20
12.1451134459
 30
0.0
 40
0.0727987331
 50
70.3720153888
 51
250.3720153888
  0
LINE
  8
0
  6
CONTINUOUS
 62
         7
  5
62
 10
9.2419952293
 20
11.8003833811
 30
0.0
 11
8.4676409144
 21
12.0765447926
 31
0.0
  0
ARC
  8
0
  6
CONTINUOUS
 62
         7
  5
63
 10
16.6047927288
 20
4.8485524855
 30
0.0
 40
10.1261414083
 50
136.6444845869
 51
151.69003902
  0
LINE
  8
0
  6
CONTINUOUS
 62
         7
  5
64
 10
6.6709029452
 20
8.1637451712
 30
0.0
 11
7.6897892832
 21
9.6507866931
 31
0.0
  0
ARC
  8
0
  6
CONTINUOUS
 62
         7
  5
65
 10
16.6047927288
 20
4.8485524855
 30
0.0
 40
11.7511414083
 50
19.6929541157
 51
151.9498888875
  0
LINE
  8
0
  6
CONTINUOUS
 62
         7
  5
66
 10
6.5817023142
 20
11.9716272476
 30
0.0
 11
6.7054864541
 21
11.989023974
 31
0.0
  0
LINE
  8
0
  6
CONTINUOUS
 62
         7
  5
67
 10
6.2685632238
 20
14.1997304755
 30
0.0
 11
6.5817023142
 21
11.9716272476
 31
0.0
  0
ARC
  8
0
  6
CONTINUOUS
 62
         7
  5
68
 10
25.9356892541
 20
7.8587731503
 30
0.0
 40
5.0915929259
 50
69.6871277729
 51
91.3156905637
  0
ARC
  8
0
  6
CONTINUOUS
 62
         7
  5
69
 10
16.6393762376
 20
8.6738312882
 30
0.0
 40
10.1261414083
 50
24.9731577878
 51
35.5862362465
  0
LINE
  8
0
  6
CONTINUOUS
 62
         7
  5
6A
 10
24.6839948439
 20
15.9210690414
 30
0.0
 11
24.8743653173
 21
14.5665127388
 31
0.0
  0
ARC
  8
0
  6
CONTINUOUS
 62
         7
  5
6B
 10
24.6530112647
 20
15.9167145833
 30
0.0
 40
0.0312880726
 50
8.0
 51
188.0
  0
LINE
  8
0
  6
CONTINUOUS
 62
         7
  5
6C
 10
24.7959940616
 20
14.6745250393
 30
0.0
 11
24.6220276854
 21
15.9123601252
 31
0.0
  0
ARC
  8
0
  6
CONTINUOUS
 62
         7
  5
6D
 10
16.6393762376
 20
8.6738312882
 30
0.0
 40
10.1261414083
 50
36.3413250449
 51
68.2992536016
  0
LINE
  8
0
  6
CONTINUOUS
 62
         7
  5
6E
 10
19.6546269969
 20
19.2364984063
 30
0.0
 11
20.3836067527
 21
18.0823103189
 31
0.0
  0
ARC
  8
0
  6
CONTINUOUS
 62
         7
  5
6F
 10
19.6233157031
 20
19.2167223408
 30
0.0
 40
0.0370336318
 50
32.2763135274
 51
212.2763135274
  0
LINE
  8
0
  6
CONTINUOUS
 62
         7
  5
70
 10
20.2672903836
 20
18.1277711426
 30
0.0
 11
19.5920044094
 21
19.1969462752
 31
0.0
  0
ARC
  8
0
  6
CONTINUOUS
 62
         7
  5
71
 10
16.6393762376
 20
8.6738312882
 30
0.0
 40
10.1261414083
 50
69.0058811666
 51
104.4417882712
  0
LINE
  8
0
  6
CONTINUOUS
 62
         7
  5
72
 10
14.1139545411
 20
18.4800020533
 30
0.0
 11
13.2856307809
 21
19.0987033305
 31
0.0
  0
ARC
  8
0
  6
CONTINUOUS
 62
         7
  5
73
 10
13.2569387622
 20
19.0602901548
 30
0.0
 40
0.0479458445
 50
53.2427804467
 51
233.2427804467
  0
LINE
  8
0
  6
CONTINUOUS
 62
         7
  5
74
 10
13.2282467434
 20
19.0218769791
 30
0.0
 11
13.9955594749
 21
18.4487467735
 31
0.0
  0
ARC
  8
0
  6
CONTINUOUS
 62
         7
  5
75
 10
16.6393762376
 20
8.6738312882
 30
0.0
 40
10.1261414083
 50
105.1346461502
 51
135.7414308019
  0
LINE
  8
0
  6
CONTINUOUS
 62
         7
  5
76
 10
8.5511323087
 20
16.038960902
 30
0.0
 11
9.3870583334
 21
15.7408408988
 31
0.0
  0
ARC
  8
0
  6
CONTINUOUS
 62
         7
  5
77
 10
8.526678366
 20
15.9703922486
 30
0.0
 40
0.0727987331
 50
70.3720153888
 51
250.3720153888
  0
LINE
  8
0
  6
CONTINUOUS
 62
         7
  5
78
 10
9.2765787382
 20
15.6256621839
 30
0.0
 11
8.5022244232
 21
15.9018235953
 31
0.0
  0
ARC
  8
0
  6
CONTINUOUS
 62
         7
  5
79
 10
16.6393762376
 20
8.6738312882
 30
0.0
 40
10.1261414083
 50
136.6444845869
 51
151.69003902
  0
LINE
  8
0
  6
CONTINUOUS
 62
         7
  5
7A
 10
6.7054864541
 20
11.989023974
 30
0.0
 11
7.724372792
 21
13.4760654958
 31
0.0
  0
ARC
  8
0
  6
CONTINUOUS
 62
         7
  5
7B
 10
16.6393762376
 20
8.6738312882
 30
0.0
 40
11.7511414083
 50
19.6929541157
 51
151.9498888875
  0
LINE
  8
0
  6
CONTINUOUS
 62
         7
  5
7C
 10
6.33066585
 20
15.8622999025
 30
0.0
 11
6.4544499899
 21
15.8796966289
 31
0.0
  0
LINE
  8
0
  6
CONTINUOUS
 62
         7
  5
7D
 10
6.0175267596
 20
18.0904031304
 30
0.0
 11
6.33066585
 21
15.8622999025
 31
0.0
  0
ARC
  8
0
  6
CONTINUOUS
 62
         7
  5
7E
 10
25.6846527899
 20
11.7494458052
 30
0.0
 40
5.0915929259
 50
69.6871277729
 51
91.3156905637
  0
ARC
  8
0
  6
CONTINUOUS
 62
         7
  5
7F
 10
16.3883397734
 20
12.5645039431
 30
0.0
 40
10.1261414083
 50
24.9731577878
 51
35.5862362465
  0
LINE
  8
0
  6
CONTINUOUS
 62
         7
  5
80
 10
24.4329583797
 20
19.8117416963
 30
0.0
 11
24.6233288531
 21
18.4571853937
 31
0.0
  0
ARC
  8
0
  6
CONTINUOUS
 62
         7
  5
81
 10
24.4019748004
 20
19.8073872382
 30
0.0
 40
0.0312880726
 50
8.0
 51
188.0
  0
LINE
  8
0
  6
CONTINUOUS
 62
         7
  5
82
 10
24.5449575974
 20
18.5651976942
 30
0.0
 11
24.3709912212
 21
19.8030327801
 31
0.0
  0
ARC
  8
0
  6
CONTINUOUS
 62
         7
  5
83
 10
16.3883397734
 20
12.5645039431
 30
0.0
 40
10.1261414083
 50
36.3413250449
 51
68.2992536016
  0
LINE
  8
0
  6
CONTINUOUS
 62
         7
  5
84
 10
19.4035905327
 20
23.1271710613
 30
0.0
 11
20.1325702884
 21
21.9729829738
 31
0.0
  0
ARC
  8
0
  6
CONTINUOUS
 62
         7
  5
85
 10
19.3722792389
 20
23.1073949957
 30
0.0
 40
0.0370336318
 50
32.2763135274
 51
212.2763135274
  0
LINE
  8
0
  6
CONTINUOUS
 62
         7
  5
86
 10
20.0162539194
 20
22.0184437975
 30
0.0
 11
19.3409679451
 21
23.0876189301
 31
0.0
  0
ARC
  8
0
  6
CONTINUOUS
 62
         7
  5
87
 10
16.3883397734
 20
12.5645039431
 30
0.0
 40
10.1261414083
 50
69.0058811666
 51
104.4417882712
  0
LINE
  8
0
  6
CONTINUOUS
 62
         7
  5
88
 10
13.8629180769
 20
22.3706747083
 30
0.0
 11
13.0345943167
 21
22.9893759854
 31
0.0
  0
ARC
  8
0
  6
CONTINUOUS
 62
         7
  5
89
 10
13.005902298
 20
22.9509628097
 30
0.0
 40
0.0479458445
 50
53.2427804467
 51
233.2427804467
  0
LINE
  8
0
  6
CONTINUOUS
 62
         7
  5
8A
 10
12.9772102792
 20
22.912549634
 30
0.0
 11
13.7445230107
 21
22.3394194285
 31
0.0
  0
ARC
  8
0
  6
CONTINUOUS
 62
         7
  5
8B
 10
16.3883397734
 20
12.5645039431
 30
0.0
 40
10.1261414083
 50
105.1346461502
 51
135.7414308019
  0
LINE
  8
0
  6
CONTINUOUS
 62
         7
  5
8C
 10
8.3000958445
 20
19.9296335569
 30
0.0
 11
9.1360218692
 21
19.6315135537
 31
0.0
  0
ARC
  8
0
  6
CONTINUOUS
 62
         7
  5
8D
 10
8.2756419018
 20
19.8610649036
 30
0.0
 40
0.0727987331
 50
70.3720153888
 51
250.3720153888
  0
LINE
  8
0
  6
CONTINUOUS
 62
         7
  5
8E
 10
9.025542274
 20
19.5163348388
 30
0.0
 11
8.251187959
 21
19.7924962502
 31
0.0
  0
ARC
  8
0
  6
CONTINUOUS
 62
         7
  5
8F
 10
16.3883397734
 20
12.5645039431
 30
0.0
 40
10.1261414083
 50
136.6444845869
 51
151.69003902
  0
LINE
  8
0
  6
CONTINUOUS
 62
         7
  5
90
 10
6.4544499899
 20
15.8796966289
 30
0.0
 11
7.4733363278
 21
17.3667381507
 31
0.0
  0
ARC
  8
0
  6
CONTINUOUS
 62
         7
  5
91
 10
16.3883397734
 20
12.5645039431
 30
0.0
 40
11.7511414083
 50
19.6929541157
 51
151.9498888875
  0
LINE
  8
0
  6
CONTINUOUS
 62
         7
  5
92
 10
6.3182269821
 20
19.5362537395
 30
0.0
 11
6.442011122
 21
19.5536504658
 31
0.0
  0
LINE
  8
0
  6
CONTINUOUS
 62
         7
  5
93
 10
6.0050878917
 20
21.7643569674
 30
0.0
 11
6.3182269821
 21
19.5362537395
 31
0.0
  0
ARC
  8
0
  6
CONTINUOUS
 62
         7
  5
94
 10
25.672213922
 20
15.4233996422
 30
0.0
 40
5.0915929259
 50
69.6871277729
 51
91.3156905637
  0
ARC
  8
0
  6
CONTINUOUS
 62
         7
  5
95
 10
16.3759009056
 20
16.2384577801
 30
0.0
 40
10.1261414083
 50
24.9731577878
 51
35.5862362465
  0
LINE
  8
0
  6
CONTINUOUS
 62
         7
  5
96
 10
24.4205195118
 20
23.4856955332
 30
0.0
 11
24.6108899852
 21
22.1311392307
 31
0.0
  0
ARC
  8
0
  6
CONTINUOUS
 62
         7
  5
97
 10
24.3895359326
 20
23.4813410751
 30
0.0
 40
0.0312880726
 50
8.0
 51
188.0
  0
LINE
  8
0
  6
CONTINUOUS
 62
         7
  5
98
 10
24.5325187296
 20
22.2391515311
 30
0.0
 11
24.3585523534
 21
23.4769866171
 31
0.0
  0
ARC
  8
0
  6
CONTINUOUS
 62
         7
  5
99
 10
16.3759009056
 20
16.2384577801
 30
0.0
 40
10.1261414083
 50
36.3413250449
 51
68.2992536016
  0
LINE
  8
0
  6
CONTINUOUS
 62
         7
  5
9A
 10
19.3911516648
 20
26.8011248982
 30
0.0
 11
20.1201314206
 21
25.6469368108
 31
0.0
  0
ARC
  8
0
  6
CONTINUOUS
 62
         7
  5
9B
 10
19.359840371
 20
26.7813488327
 30
0.0
 40
0.0370336318
 50
32.2763135274
 51
212.2763135274
  0
LINE
  8
0
  6
CONTINUOUS
 62
         7
  5
9C
 10
20.0038150515
 20
25.6923976344
 30
0.0
 11
19.3285290773
 21
26.7615727671
 31
0.0
  0
ARC
  8
0
  6
CONTINUOUS
 62
         7
  5
9D
 10
16.3759009056
 20
16.2384577801
 30
0.0
 40
10.1261414083
 50
69.0058811666
 51
104.4417882712
  0
LINE
  8
0
  6
CONTINUOUS
 62
         7
  5
9E
 10
13.8504792091
 20
26.0446285452
 30
0.0
 11
13.0221554489
 21
26.6633298223
 31
0.0
  0
ARC
  8
0
  6
CONTINUOUS
 62
         7
  5
9F
 10
12.9934634301
 20
26.6249166466
 30
0.0
 40
0.0479458445
 50
53.2427804467
 51
233.2427804467
  0
LINE
  8
0
  6
CONTINUOUS
 62
         7
  5
A0
 10
12.9647714114
 20
26.5865034709
 30
0.0
 11
13.7320841429
 21
26.0133732654
 31
0.0
  0
ARC
  8
0
  6
CONTINUOUS
 62
         7
  5
A1
 10
16.3759009056
 20
16.2384577801
 30
0.0
 40
10.1261414083
 50
105.1346461502
 51
135.7414308019
  0
LINE
  8
0
  6
CONTINUOUS
 62
         7
  5
A2
 10
8.2876569767
 20
23.6035873939
 30
0.0
 11
9.1235830014
 21
23.3054673907
 31
0.0
  0
ARC
  8
0
  6
CONTINUOUS
 62
         7
  5
A3
 10
8.2632030339
 20
23.5350187405
 30
0.0
 40
0.0727987331
 50
70.3720153888
 51
250.3720153888
  0
LINE
  8
0
  6
CONTINUOUS
 62
         7
  5
A4
 10
9.0131034061
 20
23.1902886758
 30
0.0
 11
8.2387490912
 21
23.4664500872
 31
0.0
  0
ARC
  8
0
  6
CONTINUOUS
 62
         7
  5
A5
 10
16.3759009056
 20
16.2384577801
 30
0.0
 40
10.1261414083
 50
136.6444845869
 51
151.69003902
  0
LINE
  8
0
  6
CONTINUOUS
 62
         7
  5
A6
 10
6.442011122
 20
19.5536504658
 30
0.0
 11
7.46089746
 21
21.0406919877
 31
0.0
  0
ARC
  8
0
  6
CONTINUOUS
 62
         7
  5
A7
 10
16.3759009056
 20
16.2384577801
 30
0.0
 40
11.7511414083
 50
19.6929541157
 51
151.9498888875
  0
LINE
  8
0
  6
CONTINUOUS
 62
         7
  5
A8
 10
12.6591261127
 20
46.9772770106
 30
0.0
 11
12.186585533
 21
45.9765391193
 31
0.0
  0
ARC
  8
0
  6
CONTINUOUS
 62
         7
  5
A9
 10
12.2200735332
 20
45.9607263484
 30
0.0
 40
0.0370336318
 50
154.7236864726
 51
334.7236864726
  0
LINE
  8
0
  6
CONTINUOUS
 62
         7
  5
AA
 10
12.2535615335
 20
45.9449135774
 30
0.0
 11
12.7565693017
 21
47.0101743292
 31
0.0
  0
ARC
  8
0
  6
CONTINUOUS
 62
         7
  5
AB
 10
16.4666263766
 20
35.8600711504
 30
0.0
 40
11.7511414083
 50
76.4385360035
 51
108.4042167057
  0
LINE
  8
0
  6
CONTINUOUS
 62
         7
  5
AC
 10
18.5249012124
 20
46.615956534
 30
0.0
 11
19.2221319985
 21
47.2835781935
 31
0.0
  0
ARC
  8
0
  6
CONTINUOUS
 62
         7
  5
AD
 10
18.5580607537
 20
46.5813263618
 30
0.0
 40
0.0479458445
 50
133.7572195533
 51
313.7572195533
  0
LINE
  8
0
  6
CONTINUOUS
 62
         7
  5
AE
 10
19.3324125404
 20
47.256412408
 30
0.0
 11
18.591220295
 21
46.5466961896
 31
0.0
  0
ARC
  8
0
  6
CONTINUOUS
 62
         7
  5
AF
 10
16.4666263766
 20
35.8600711504
 30
0.0
 40
11.7511414083
 50
47.6749951142
 51
75.8847584024
  0
LINE
  8
0
  6
CONTINUOUS
 62
         7
  5
B0
 10
24.3790839667
 20
44.5481284293
 30
0.0
 11
23.5969982516
 21
44.1560111818
 31
0.0
  0
ARC
  8
0
  6
CONTINUOUS
 62
         7
  5
B1
 10
23.6296263352
 20
44.0909338147
 30
0.0
 40
0.0727987331
 50
116.6279846112
 51
296.6279846112
  0
LINE
  8
0
  6
CONTINUOUS
 62
         7
  5
B2
 10
23.6622544187
 20
44.0258564477
 30
0.0
 11
24.4934375314
 21
44.4425898415
 31
0.0
  0
ARC
  8
0
  6
CONTINUOUS
 62
         7
  5
B3
 10
16.4666263766
 20
35.8600711504
 30
0.0
 40
11.7511414083
 50
35.0501111125
 51
46.9162617761
  0
LINE
  8
0
  6
CONTINUOUS
 62
         7
  5
B4
 10
26.0866992172
 20
42.6086652957
 30
0.0
 11
26.0414851932
 21
40.0183330665
 31
0.0
  0
LINE
  8
0
  6
CONTINUOUS
 62
         7
  5
B5
 10
26.0414851932
 20
40.0183330665
 30
0.0
 11
25.7295987562
 21
39.9510468914
 31
0.0
  0
ARC
  8
0
  6
CONTINUOUS
 62
         7
  5
B6
 10
16.4666263766
 20
35.8600711504
 30
0.0
 40
10.1261414083
 50
23.8285675471
 51
162.0268422122
  0
ARC
  8
0
  6
CONTINUOUS
 62
         7
  5
B7
 10
7.4257305425
 20
33.4492681139
 30
0.0
 40
5.5669117521
 50
96.0952265888
 51
101.4390730974
  0
LINE
  8
0
  6
CONTINUOUS
 62
         7
  5
B8
 10
6.3216683469
 20
38.9055995851
 30
0.0
 11
5.6531051751
 21
40.4597541418
 31
0.0
  0
ARC
  8
0
  6
CONTINUOUS
 62
         7
  5
B9
 10
16.4666263766
 20
35.8600711504
 30
0.0
 40
11.7511414083
 50
138.8139865811
 51
156.9568437605
  0
LINE
  8
0
  6
CONTINUOUS
 62
         7
  5
BA
 10
7.6230031357
 20
43.5982655374
 30
0.0
 11
7.5963784478
 21
42.0729381882
 31
0.0
  0
ARC
  8
0
  6
CONTINUOUS
 62
         7
  5
BB
 10
7.6300383383
 20
42.0723506527
 30
0.0
 40
0.0336650179
 50
179.0
 51
359.0
  0
LINE
  8
0
  6
CONTINUOUS
 62
         7
  5
BC
 10
7.6636982289
 20
42.0717631171
 30
0.0
 11
7.6917017147
 21
43.6760817424
 31
0.0
  0
ARC
  8
0
  6
CONTINUOUS
 62
         7
  5
BD
 10
16.4666263766
 20
35.8600711504
 30
0.0
 40
11.7511414083
 50
108.9056736012
 51
138.3078709625
  0
LINE
  8
0
  6
CONTINUOUS
 62
         7
  5
BE
 10
12.2811840287
 20
51.1787655829
 30
0.0
 11
11.8086434489
 21
50.1780276917
 31
0.0
  0
ARC
  8
0
  6
CONTINUOUS
 62
         7
  5
BF
 10
11.8421314492
 20
50.1622149207
 30
0.0
 40
0.0370336318
 50
154.7236864726
 51
334.7236864726
  0
LINE
  8
0
  6
CONTINUOUS
 62
         7
  5
C0
 10
11.8756194495
 20
50.1464021498
 30
0.0
 11
12.3786272177
 21
51.2116629015
 31
0.0
  0
ARC
  8
0
  6
CONTINUOUS
 62
         7
  5
C1
 10
16.0886842926
 20
40.0615597227
 30
0.0
 40
11.7511414083
 50
76.4385360035
 51
108.4042167057
  0
LINE
  8
0
  6
CONTINUOUS
 62
         7
  5
C2
 10
18.1469591283
 20
50.8174451064
 30
0.0
 11
18.8441899145
 21
51.4850667659
 31
0.0
  0
ARC
  8
0
  6
CONTINUOUS
 62
         7
  5
C3
 10
18.1801186696
 20
50.7828149342
 30
0.0
 40
0.0479458445
 50
133.7572195533
 51
313.7572195533
  0
LINE
  8
0
  6
CONTINUOUS
 62
         7
  5
C4
 10
18.9544704564
 20
51.4579009803
 30
0.0
 11
18.2132782109
 21
50.7481847619
 31
0.0
  0
ARC
  8
0
  6
CONTINUOUS
 62
         7
  5
C5
 10
16.0886842926
 20
40.0615597227
 30
0.0
 40
11.7511414083
 50
47.6749951142
 51
75.8847584024
  0
LINE
  8
0
  6
CONTINUOUS
 62
         7
  5
C6
 10
24.0011418827
 20
48.7496170016
 30
0.0
 11
23.2190561676
 21
48.3574997541
 31
0.0
  0
ARC
  8
0
  6
CONTINUOUS
 62
         7
  5
C7
 10
23.2516842511
 20
48.2924223871
 30
0.0
 40
0.0727987331
 50
116.6279846112
 51
296.6279846112
  0
LINE
  8
0
  6
CONTINUOUS
 62
         7
  5
C8
 10
23.2843123347
 20
48.22734502
 30
0.0
 11
24.1154954473
 21
48.6440784138
 31
0.0
  0
ARC
  8
0
  6
CONTINUOUS
 62
         7
  5
C9
 10
16.0886842926
 20
40.0615597227
 30
0.0
 40
11.7511414083
 50
35.0501111125
 51
46.9162617761
  0
LINE
  8
0
  6
CONTINUOUS
 62
         7
  5
CA
 10
25.7087571332
 20
46.810153868
 30
0.0
 11
25.6635431092
 21
44.2198216388
 31
0.0
  0
LINE
  8
0
  6
CONTINUOUS
 62
         7
  5
CB
 10
25.6635431092
 20
44.2198216388
 30
0.0
 11
25.3516566722
 21
44.1525354638
 31
0.0
  0
ARC
  8
0
  6
CONTINUOUS
 62
         7
  5
CC
 10
16.0886842926
 20
40.0615597227
 30
0.0
 40
10.1261414083
 50
23.8285675471
 51
162.0268422122
  0
ARC
  8
0
  6
CONTINUOUS
 62
         7
  5
CD
 10
7.0477884585
 20
37.6507566862
 30
0.0
 40
5.5669117521
 50
96.0952265888
 51
101.4390730974
  0
LINE
  8
0
  6
CONTINUOUS
 62
         7
  5
CE
 10
5.9437262629
 20
43.1070881574
 30
0.0
 11
5.2751630911
 21
44.6612427142
 31
0.0
  0
ARC
  8
0
  6
CONTINUOUS
 62
         7
  5
CF
 10
16.0886842926
 20
40.0615597227
 30
0.0
 40
11.7511414083
 50
138.8139865811
 51
156.9568437605
  0
LINE
  8
0
  6
CONTINUOUS
 62
         7
  5
D0
 10
7.2450610517
 20
47.7997541097
 30
0.0
 11
7.2184363638
 21
46.2744267606
 31
0.0
  0
ARC
  8
0
  6
CONTINUOUS
 62
         7
  5
D1
 10
7.2520962543
 20
46.273839225
 30
0.0
 40
0.0336650179
 50
179.0
 51
359.0
  0
LINE
  8
0
  6
CONTINUOUS
 62
         7
  5
D2
 10
7.2857561449
 20
46.2732516894
 30
0.0
 11
7.3137596306
 21
47.8775703147
 31
0.0
  0
ARC
  8
0
  6
CONTINUOUS
 62
         7
  5
D3
 10
16.0886842926
 20
40.0615597227
 30
0.0
 40
11.7511414083
 50
108.9056736012
 51
138.3078709625
  0
LINE
  8
0
  6
CONTINUOUS
 62
         7
  5
D4
 10
12.173585538
 20
55.3523140908
 30
0.0
 11
11.7010449582
 21
54.3515761996
 31
0.0
  0
ARC
  8
0
  6
CONTINUOUS
 62
         7
  5
D5
 10
11.7345329585
 20
54.3357634286
 30
0.0
 40
0.0370336318
 50
154.7236864726
 51
334.7236864726
  0
LINE
  8
0
  6
CONTINUOUS
 62
         7
  5
D6
 10
11.7680209587
 20
54.3199506577
 30
0.0
 11
12.271028727
 21
55.3852114095
 31
0.0
  0
ARC
  8
0
  6
CONTINUOUS
 62
         7
  5
D7
 10
15.9810858018
 20
44.2351082306
 30
0.0
 40
11.7511414083
 50
76.4385360035
 51
108.4042167057
  0
LINE
  8
0
  6
CONTINUOUS
 62
         7
  5
D8
 10
18.0393606376
 20
54.9909936143
 30
0.0
 11
18.7365914238
 21
55.6586152738
 31
0.0
  0
ARC
  8
0
  6
CONTINUOUS
 62
         7
  5
D9
 10
18.0725201789
 20
54.9563634421
 30
0.0
 40
0.0479458445
 50
133.7572195533
 51
313.7572195533
  0
LINE
  8
0
  6
CONTINUOUS
 62
         7
  5
DA
 10
18.8468719657
 20
55.6314494883
 30
0.0
 11
18.1056797202
 21
54.9217332698
 31
0.0
  0
ARC
  8
0
  6
CONTINUOUS
 62
         7
  5
DB
 10
15.9810858018
 20
44.2351082306
 30
0.0
 40
11.7511414083
 50
47.6749951142
 51
75.8847584024
  0
LINE
  8
0
  6
CONTINUOUS
 62
         7
  5
DC
 10
23.893543392
 20
52.9231655095
 30
0.0
 11
23.1114576769
 21
52.5310482621
 31
0.0
  0
ARC
  8
0
  6
CONTINUOUS
 62
         7
  5
DD
 10
23.1440857604
 20
52.465970895
 30
0.0
 40
0.0727987331
 50
116.6279846112
 51
296.6279846112
  0
LINE
  8
0
  6
CONTINUOUS
 62
         7
  5
DE
 10
23.1767138439
 20
52.4008935279
 30
0.0
 11
24.0078969566
 21
52.8176269217
 31
0.0
  0
ARC
  8
0
  6
CONTINUOUS
 62
         7
  5
DF
 10
15.9810858018
 20
44.2351082306
 30
0.0
 40
11.7511414083
 50
35.0501111125
 51
46.9162617761
  0
LINE
  8
0
  6
CONTINUOUS
 62
         7
  5
E0
 10
25.6011586425
 20
50.9837023759
 30
0.0
 11
25.5559446185
 21
48.3933701467
 31
0.0
  0
LINE
  8
0
  6
CONTINUOUS
 62
         7
  5
E1
 10
25.5559446185
 20
48.3933701467
 30
0.0
 11
25.2440581815
 21
48.3260839717
 31
0.0
  0
ARC
  8
0
  6
CONTINUOUS
 62
         7
  5
E2
 10
15.9810858018
 20
44.2351082306
 30
0.0
 40
10.1261414083
 50
23.8285675471
 51
162.0268422122
  0
ARC
  8
0
  6
CONTINUOUS
 62
         7
  5
E3
 10
6.9401899678
 20
41.8243051941
 30
0.0
 40
5.5669117521
 50
96.0952265888
 51
101.4390730974
  0
LINE
  8
0
  6
CONTINUOUS
 62
         7
  5
E4
 10
5.8361277721
 20
47.2806366654
 30
0.0
 11
5.1675646003
 21
48.8347912221
 31
0.0
  0
ARC
  8
0
  6
CONTINUOUS
 62
         7
  5
E5
 10
15.9810858018
 20
44.2351082306
 30
0.0
 40
11.7511414083
 50
138.8139865811
 51
156.9568437605
  0
LINE
  8
0
  6
CONTINUOUS
 62
         7
  5
E6
 10
7.137462561
 20
51.9733026176
 30
0.0
 11
7.110837873
 21
50.4479752685
 31
0.0
  0
ARC
  8
0
  6
CONTINUOUS
 62
         7
  5
E7
 10
7.1444977636
 20
50.4473877329
 30
0.0
 40
0.0336650179
 50
179.0
 51
358.9999999999
  0
LINE
  8
0
  6
CONTINUOUS
 62
         7
  5
E8
 10
7.1781576541
 20
50.4468001973
 30
0.0
 11
7.2061611399
 21
52.0511188227
 31
0.0
  0
ARC
  8
0
  6
CONTINUOUS
 62
         7
  5
E9
 10
15.9810858018
 20
44.2351082306
 30
0.0
 40
11.7511414083
 50
108.9056736012
 51
138.3078709625
  0
LINE
  8
0
  6
CONTINUOUS
 62
         7
  5
EA
 10
11.795527033
 20
59.361229431
 30
0.0
 11
11.3229864532
 21
58.3604915398
 31
0.0
  0
ARC
  8
0
  6
CONTINUOUS
 62
         7
  5
EB
 10
11.3564744535
 20
58.3446787688
 30
0.0
 40
0.0370336318
 50
154.7236864726
 51
334.7236864726
  0
LINE
  8
0
  6
CONTINUOUS
 62
         7
  5
EC
 10
11.3899624538
 20
58.3288659979
 30
0.0
 11
11.892970222
 21
59.3941267497
 31
0.0
  0
ARC
  8
0
  6
CONTINUOUS
 62
         7
  5
ED
 10
15.6030272969
 20
48.2440235708
 30
0.0
 40
11.7511414083
 50
76.4385360035
 51
108.4042167057
  0
LINE
  8
0
  6
CONTINUOUS
 62
         7
  5
EE
 10
17.6613021326
 20
58.9999089545
 30
0.0
 11
18.3585329188
 21
59.667530614
 31
0.0
  0
ARC
  8
0
  6
CONTINUOUS
 62
         7
  5
EF
 10
17.6944616739
 20
58.9652787823
 30
0.0
 40
0.0479458445
 50
133.7572195533
 51
313.7572195533
  0
LINE
  8
0
  6
CONTINUOUS
 62
         7
  5
F0
 10
18.4688134607
 20
59.6403648285
 30
0.0
 11
17.7276212152
 21
58.93064861
 31
0.0
  0
ARC
  8
0
  6
CONTINUOUS
 62
         7
  5
F1
 10
15.6030272969
 20
48.2440235708
 30
0.0
 40
11.7511414083
 50
47.6749951142
 51
75.8847584024
  0
LINE
  8
0
  6
CONTINUOUS
 62
         7
  5
F2
 10
23.515484887
 20
56.9320808497
 30
0.0
 11
22.7333991719
 21
56.5399636023
 31
0.0
  0
ARC
  8
0
  6
CONTINUOUS
 62
         7
  5
F3
 10
22.7660272554
 20
56.4748862352
 30
0.0
 40
0.0727987331
 50
116.6279846112
 51
296.6279846112
  0
LINE
  8
0
  6
CONTINUOUS
 62
         7
  5
F4
 10
22.798655339
 20
56.4098088681
 30
0.0
 11
23.6298384516
 21
56.8265422619
 31
0.0
  0
ARC
  8
0
  6
CONTINUOUS
 62
         7
  5
F5
 10
15.6030272969
 20
48.2440235708
 30
0.0
 40
11.7511414083
 50
35.0501111125
 51
46.9162617761
  0
LINE
  8
0
  6
CONTINUOUS
 62
         7
  5
F6
 10
25.2231001375
 20
54.9926177161
 30
0.0
 11
25.1778861135
 21
52.4022854869
 31
0.0
  0
LINE
  8
0
  6
CONTINUOUS
 62
         7
  5
F7
 10
25.1778861135
 20
52.4022854869
 30
0.0
 11
24.8659996765
 21
52.3349993119
 31
0.0
  0
ARC
  8
0
  6
CONTINUOUS
 62
         7
  5
F8
 10
15.6030272969
 20
48.2440235708
 30
0.0
 40
10.1261414083
 50
23.8285675471
 51
162.0268422122
  0
ARC
  8
0
  6
CONTINUOUS
 62
         7
  5
F9
 10
6.5621314628
 20
45.8332205343
 30
0.0
 40
5.5669117521
 50
96.0952265888
 51
101.4390730974
  0
LINE
  8
0
  6
CONTINUOUS
 62
         7
  5
FA
 10
5.4580692672
 20
51.2895520056
 30
0.0
 11
4.7895060954
 21
52.8437065623
 31
0.0
  0
ARC
  8
0
  6
CONTINUOUS
 62
         7
  5
FB
 10
15.6030272969
 20
48.2440235708
 30
0.0
 40
11.7511414083
 50
138.8139865811
 51
156.9568437605
  0
LINE
  8
0
  6
CONTINUOUS
 62
         7
  5
FC
 10
6.759404056
 20
55.9822179578
 30
0.0
 11
6.7327793681
 21
54.4568906087
 31
0.0
  0
ARC
  8
0
  6
CONTINUOUS
 62
         7
  5
FD
 10
6.7664392586
 20
54.4563030731
 30
0.0
 40
0.0336650179
 50
179.0
 51
359.0
  0
LINE
  8
0
  6
CONTINUOUS
 62
         7
  5
FE
 10
6.8000991492
 20
54.4557155375
 30
0.0
 11
6.8281026349
 21
56.0600341629
 31
0.0
  0
ARC
  8
0
  6
CONTINUOUS
 62
         7
  5
FF
 10
15.6030272969
 20
48.2440235708
 30
0.0
 40
11.7511414083
 50
108.9056736012
 51
138.3078709625
  0
CIRCLE
  8
0
  6
CONTINUOUS
 62
         7
  5
100
 10
16.7192283073
 20
15.8629825495
 30
0.0
 40
13.5
  0
CIRCLE
  8
0
  6
CONTINUOUS
 62
         7
  5
101
 10
16.7192283073
 20
15.8629825495
 30
0.0
 40
15.0
  0
CIRCLE
  8
0
  6
CONTINUOUS
 62
         7
  5
102
 10
21.1227204772
 20
2.3104271923
 30
0.0
 40
0.14
  0
CIRCLE
  8
0
  6
CONTINUOUS
 62
         7
  5
103
 10
28.2477204772
 20
7.4870427043
 30
0.0
 40
0.14
  0
CIRCLE
  8
0
  6
CONTINUOUS
 62
         7
  5
104
 10
30.9692283073
 20
15.8629825495
 30
0.0
 40
0.14
  0
CIRCLE
  8
0
  6
CONTINUOUS
 62
         7
  5
105
 10
28.2477204772
 20
24.2389223946
 30
0.0
 40
0.14
  0
CIRCLE
  8
0
  6
CONTINUOUS
 62
         7
  5
106
 10
21.1227204772
 20
29.4155379067
 30
0.0
 40
0.14
  0
CIRCLE
  8
0
  6
CONTINUOUS
 62
         7
  5
107
 10
12.3157361375
 20
29.4155379067
 30
0.0
 40
0.14
  0
CIRCLE
  8
0
  6
CONTINUOUS
 62
         7
  5
108
 10
5.1907361375
 20
24.2389223946
 30
0.0
 40
0.14
  0
CIRCLE
  8
0
  6
CONTINUOUS
 62
         7
  5
109
 10
2.4692283073
 20
15.8629825495
 30
0.0
 40
0.14
  0
CIRCLE
  8
0
  6
CONTINUOUS
 62
         7
  5
10A
 10
5.1907361375
 20
7.4870427043
 30
0.0
 40
0.14
  0
CIRCLE
  8
0
  6
CONTINUOUS
 62
         7
  5
10B
 10
12.3157361375
 20
2.3104271923
 30
0.0
 40
0.14
  0
CIRCLE
  8
0
  6
CONTINUOUS
 62
         7
  5
10C
 10
15.6533165715
 20
47.656187977
 30
0.0
 40
13.5
  0
CIRCLE
  8
0
  6
CONTINUOUS
 62
         7
  5
10D
 10
15.6533165715
 20
47.656187977
 30
0.0
 40
15.0
  0
CIRCLE
  8
0
  6
CONTINUOUS
 62
         7
  5
10E
 10
20.0568087413
 20
34.1036326198
 30
0.0
 40
0.14
  0
CIRCLE
  8
0
  6
CONTINUOUS
 62
         7
  5
10F
 10
27.1818087413
 20
39.2802481318
 30
0.0
 40
0.14
  0
CIRCLE
  8
0
  6
CONTINUOUS
 62
         7
  5
110
 10
29.9033165715
 20
47.656187977
 30
0.0
 40
0.14
  0
CIRCLE
  8
0
  6
CONTINUOUS
 62
         7
  5
111
 10
27.1818087413
 20
56.0321278222
 30
0.0
 40
0.14
  0
CIRCLE
  8
0
  6
CONTINUOUS
 62
         7
  5
112
 10
20.0568087413
 20
61.2087433342
 30
0.0
 40
0.14
  0
CIRCLE
  8
0
  6
CONTINUOUS
 62
         7
  5
113
 10
11.2498244016
 20
61.2087433342
 30
0.0
 40
0.14
  0
CIRCLE
  8
0
  6
CONTINUOUS
 62
         7
  5
114
 10
4.1248244016
 20
56.0321278222
 30
0.0
 40
0.14
  0
CIRCLE
  8
0
  6
CONTINUOUS
 62
         7
  5
115
 10
1.4033165715
 20
47.656187977
 30
0.0
 40
0.14
  0
CIRCLE
  8
0
  6
CONTINUOUS
 62
         7
  5
116
 10
4.1248244016
 20
39.2802481318
 30
0.0
 40
0.14
  0
CIRCLE
  8
0
  6
CONTINUOUS
 62
         7
  5
117
 10
11.2498244016
 20
34.1036326198
 30
0.0
 40
0.14
  0
ENDSEC
  0
EOF
