  0
SECTION
  2
HEADER
  9
$ACADVER
  1
AC1009
  9
$DWGCODEPAGE
  3
ansi_1252
  9
$INSBASE
 10
0.0
 20
0.0
 30
0.0
  9
$EXTMIN
 10
0.0
 20
0.0
 30
0.0
  9
$EXTMAX
 10
48.0
 20
48.0
 30
0.0
  9
$LIMMIN
 10
0.0
 20
0.0
  9
$LIMMAX
 10
0.0
 20
0.0
  9
$ORTHOMODE
 70
         0
  9
$REGENMODE
 70
         1
  9
$FILLMODE
 70
         1
  9
$QTEXTMODE
 70
         0
  9
$MIRRTEXT
 70
         1
  9
$DRAGMODE
 70
         2
  9
$LTSCALE
 40
1.0
  9
$OSMODE
 70
         0
  9
$ATTMODE
 70
         1
  9
$TEXTSIZE
 40
0.1377952756
  9
$TRACEWID
 40
0.05
  9
$TEXTSTYLE
  7
STANDARD
  9
$CLAYER
  8
0
  9
$CELTYPE
  6
CONTINUOUS
  9
$CECOLOR
 62
       256
  9
$DIMSCALE
 40
1.0
  9
$DIMASZ
 40
0.0
  9
$DIMEXO
 40
0.0
  9
$DIMDLI
 40
0.38
  9
$DIMRND
 40
0.0
  9
$DIMDLE
 40
0.0
  9
$DIMEXE
 40
0.18
  9
$DIMTP
 40
0.0
  9
$DIMTM
 40
0.0
  9
$DIMTXT
 40
0.1377952756
  9
$DIMCEN
 40
0.09
  9
$DIMTSZ
 40
0.0
  9
$DIMTOL
 70
         0
  9
$DIMLIM
 70
         0
  9
$DIMTIH
 70
         1
  9
$DIMTOH
 70
         1
  9
$DIMSE1
 70
         0
  9
$DIMSE2
 70
         0
  9
$DIMTAD
 70
         1
  9
$DIMZIN
 70
         0
  9
$DIMBLK
  1

  9
$DIMASO
 70
         1
  9
$DIMSHO
 70
         1
  9
$DIMPOST
  1

  9
$DIMAPOST
  1

  9
$DIMALT
 70
         0
  9
$DIMALTD
 70
         2
  9
$DIMALTF
 40
25.4
  9
$DIMLFAC
 40
1.0
  9
$DIMTOFL
 70
         0
  9
$DIMTVP
 40
0.0
  9
$DIMTIX
 70
         0
  9
$DIMSOXD
 70
         0
  9
$DIMSAH
 70
         0
  9
$DIMBLK1
  1

  9
$DIMBLK2
  1

  9
$DIMSTYLE
  2
STANDARD
  9
$DIMCLRD
 70
         0
  9
$DIMCLRE
 70
         0
  9
$DIMCLRT
 70
         0
  9
$DIMTFAC
 40
1.0
  9
$DIMGAP
 40
0.0
  9
$LUNITS
 70
         2
  9
$LUPREC
 70
         2
  9
$AXISMODE
 70
         0
  9
$AXISUNIT
 10
0.0
 20
0.0
  9
$SKETCHINC
 40
0.1
  9
$FILLETRAD
 40
0.0
  9
$AUNITS
 70
         0
  9
$AUPREC
 70
         2
  9
$MENU
  1
acad
  9
$ELEVATION
 40
0.0
  9
$PELEVATION
 40
0.0
  9
$THICKNESS
 40
0.0
  9
$LIMCHECK
 70
         0
  9
$BLIPMODE
 70
         1
  9
$CHAMFERA
 40
0.0
  9
$CHAMFERB
 40
0.0
  9
$SKPOLY
 70
         0
  9
$TDCREATE
 40
0.000000000
  9
$TDUPDATE
 40
0.000000000
  9
$TDINDWG
 40
0.0000000000
  9
$TDUSRTIMER
 40
0.0000000000
  9
$USRTIMER
 70
         1
  9
$ANGBASE
 50
0.0
  9
$ANGDIR
 70
         0
  9
$PDMODE
 70
         0
  9
$PDSIZE
 40
-1.0
  9
$PLINEWID
 40
0.0
  9
$COORDS
 70
         0
  9
$SPLFRAME
 70
         0
  9
$SPLINETYPE
 70
         6
  9
$SPLINESEGS
 70
         8
  9
$ATTDIA
 70
         0
  9
$ATTREQ
 70
         1
  9
$HANDLING
 70
         1
  9
$HANDSEED
  5
118
  9
$SURFTAB1
 70
         6
  9
$SURFTAB2
 70
         6
  9
$SURFTYPE
 70
         6
  9
$SURFU
 70
         6
  9
$SURFV
 70
         6
  9
$UCSNAME
  2

  9
$UCSORG
 10
0.0
 20
0.0
 30
0.0
  9
$UCSXDIR
 10
1.0
 20
0.0
 30
0.0
  9
$UCSYDIR
 10
0.0
 20
1.0
 30
0.0
  9
$PUCSNAME
  2

  9
$PUCSORG
 10
0.0
 20
0.0
 30
0.0
  9
$PUCSXDIR
 10
1.0
 20
0.0
 30
0.0
  9
$PUCSYDIR
 10
0.0
 20
1.0
 30
0.0
  9
$USERI1
 70
         0
  9
$USERI2
 70
         0
  9
$USERI3
 70
         0
  9
$USERI4
 70
         0
  9
$USERI5
 70
         0
  9
$USERR1
 40
0.0
  9
$USERR2
 40
0.0
  9
$USERR3
 40
0.0
  9
$USERR4
 40
0.0
  9
$USERR5
 40
0.0
  9
$WORLDVIEW
 70
         1
  9
$SHADEDGE
 70
         3
  9
$SHADEDIF
 70
        70
  9
$TILEMODE
 70
         1
  9
$MAXACTVP
 70
        16
  9
$PINSBASE
 10
0.0
 20
0.0
 30
0.0
  9
$PLIMCHECK
 70
         0
  9
$PEXTMIN
 10
1.0000000000E+20
 20
1.0000000000E+20
 30
1.0000000000E+20
  9
$PEXTMAX
 10
-1.0000000000E+20
 20
-1.0000000000E+20
 30
-1.0000000000E+20
  9
$PLIMMIN
 10
0.0
 20
0.0
  9
$PLIMMAX
 10
12.0
 20
9.0
  9
$UNITMODE
 70
         0
  9
$VISRETAIN
 70
         0
  9
$PLINEGEN
 70
         1
  9
$PSLTSCALE
 70
         1
  9
$TREEDEPTH
 70
      3020
  0
ENDSEC
  0
SECTION
  2
TABLES
  0
TABLE
  2
VPORT
 70
         1
  0
VPORT
  2
*ACTIVE
 70
         0
 10
0.0
 20
0.0
 11
1.0
 21
1.0
 12
24.0
 22
24.0
 13
0.0
 23
0.0
 14
1.0
 24
1.0
 15
0.0
 25
0.0
 16
0.0
 26
0.0
 36
1.0
 17
0.0
 27
0.0
 37
0.0
 40
48.0
 41
1.0
 42
50.0
 43
0.0
 44
0.0
 50
0.0
 51
0.0
 71
         0
 72
      2000
 73
         1
 74
         1
 75
         0
 76
         0
 77
         0
 78
         0
  0
ENDTAB
  0
TABLE
  2
LTYPE
 70
         6
  0
LTYPE
  2
CONTINUOUS
 70
        64
  3
Solid line
 72
        65
 73
         0
 40
0.0
  0
LTYPE
  2
HIDDEN
 70
        64
  3
Hidden __ __ __ __ __ __ __ __ __ __ __ __ __ __
 72
        65
 73
         2
 40
0.075
 49
0.05
 49
-0.025
  0
LTYPE
  2
PHANTOM
 70
        64
  3
Phantom ______  __  __  ______  __  __  ______
 72
        65
 73
         6
 40
0.5
 49
0.25
 49
-0.05
 49
0.05
 49
-0.05
 49
0.05
 49
-0.05
  0
LTYPE
  2
CENTER
 70
        64
  3
Center ____ _ ____ _ ____ _ ____ _ ____ _ ____
 72
        65
 73
         4
 40
0.4
 49
0.25
 49
-0.05
 49
0.05
 49
-0.05
  0
LTYPE
  2
CENTERX2
 70
        64
  3
Center (2x) ________  __  ________  __  _____
 72
        65
 73
         4
 40
0.8
 49
0.5
 49
-0.1
 49
0.1
 49
-0.1
  0
LTYPE
  2
DOT2
 70
        64
  3
Dot (.5x) ........................................
 72
        65
 73
         2
 40
0.025
 49
0.0
 49
-0.025
  0
ENDTAB
  0
TABLE
  2
LAYER
 70
         2
  0
LAYER
  2
0
 70
         0
 62
         7
  6
CONTINUOUS
  0
LAYER
  2
DEFPOINTS
 70
         0
 62
         7
  6
CONTINUOUS
  0
ENDTAB
  0
TABLE
  2
STYLE
 70
         1
  0
STYLE
  2
STANDARD
 70
         0
 40
0.0
 41
1.0
 50
0.0
 71
         0
 42
0.0
  3
txt
  4

  0
ENDTAB
  0
TABLE
  2
VIEW
 70
         0
  0
ENDTAB
  0
TABLE
  2
UCS
 70
         0
  0
ENDTAB
  0
TABLE
  2
APPID
 70
         1
  0
APPID
  2
ACAD
 70
         0
  0
ENDTAB
  0
TABLE
  2
DIMSTYLE
 70
         1
  0
DIMSTYLE
  2
STANDARD
 70
         0
  3

  4

  5

  6

  7

 40
1.0
 41
0.18
 42
0.0625
 43
0.38
 44
0.18
 45
0.0
 46
0.0
 47
0.0
 48
0.0
 71
         0
 72
         0
 73
         1
 74
         1
 75
         0
 76
         0
 77
         0
 78
         0
140
0.18
141
0.09
142
0.0
143
25.4
144
1.0
145
0.0
146
1.0
147
0.09
170
         0
171
         2
172
         0
173
         0
174
         0
175
         0
176
         0
177
         0
178
         0
  0
ENDTAB
  0
ENDSEC
  0
SECTION
  2
BLOCKS
  0
ENDSEC
  0
SECTION
  2
ENTITIES
  0
LINE
  8
0
  6
CONTINUOUS
 62
         7
  5
24
 10
31.8088834715
 20
23.0555231709
 30
0.0
 11
31.3363428917
 21
22.0547852796
 31
0.0
  0
ARC
  8
0
  6
CONTINUOUS
 62
         7
  5
25
 10
31.369830892
 20
22.0389725087
 30
0.0
 40
0.0370336318
 50
154.7236864726
 51
334.7236864726
  0
LINE
  8
0
  6
CONTINUOUS
 62
         7
  5
26
 10
31.4033188922
 20
22.0231597377
 30
0.0
 11
31.9063266604
 21
23.0884204895
 31
0.0
  0
ARC
  8
0
  6
CONTINUOUS
 62
         7
  5
27
 10
35.6163837353
 20
11.9383173107
 30
0.0
 40
11.7511414083
 50
76.4385360035
 51
108.4042167057
  0
LINE
  8
0
  6
CONTINUOUS
 62
         7
  5
28
 10
37.6746585711
 20
22.6942026944
 30
0.0
 11
38.3718893573
 21
23.3618243538
 31
0.0
  0
ARC
  8
0
  6
CONTINUOUS
 62
         7
  5
29
 10
37.7078181124
 20
22.6595725221
 30
0.0
 40
0.0479458445
 50
133.7572195533
 51
313.7572195533
  0
LINE
  8
0
  6
CONTINUOUS
 62
         7
  5
2A
 10
38.4821698992
 20
23.3346585683
 30
0.0
 11
37.7409776537
 21
22.6249423499
 31
0.0
  0
ARC
  8
0
  6
CONTINUOUS
 62
         7
  5
2B
 10
35.6163837353
 20
11.9383173107
 30
0.0
 40
11.7511414083
 50
47.6749951142
 51
75.8847584024
  0
LINE
  8
0
  6
CONTINUOUS
 62
         7
  5
2C
 10
43.5288413255
 20
20.6263745896
 30
0.0
 11
42.7467556104
 21
20.2342573421
 31
0.0
  0
ARC
  8
0
  6
CONTINUOUS
 62
         7
  5
2D
 10
42.7793836939
 20
20.1691799751
 30
0.0
 40
0.0727987331
 50
116.6279846112
 51
296.6279846112
  0
LINE
  8
0
  6
CONTINUOUS
 62
         7
  5
2E
 10
42.8120117774
 20
20.104102608
 30
0.0
 11
43.6431948901
 21
20.5208360018
 31
0.0
  0
ARC
  8
0
  6
CONTINUOUS
 62
         7
  5
2F
 10
35.6163837353
 20
11.9383173107
 30
0.0
 40
11.7511414083
 50
35.0501111125
 51
46.9162617761
  0
LINE
  8
0
  6
CONTINUOUS
 62
         7
  5
30
 10
45.2364565759
 20
18.686911456
 30
0.0
 11
45.1912425519
 21
16.0965792268
 31
0.0
  0
LINE
  8
0
  6
CONTINUOUS
 62
         7
  5
31
 10
45.1912425519
 20
16.0965792268
 30
0.0
 11
44.879356115
 21
16.0292930518
 31
0.0
  0
ARC
  8
0
  6
CONTINUOUS
 62
         7
  5
32
 10
35.6163837353
 20
11.9383173107
 30
0.0
 40
10.1261414083
 50
23.8285675471
 51
162.0268422122
  0
ARC
  8
0
  6
CONTINUOUS
 62
         7
  5
33
 10
26.5754879013
 20
9.5275142742
 30
0.0
 40
5.5669117521
 50
96.0952265888
 51
101.4390730974
  0
LINE
  8
0
  6
CONTINUOUS
 62
         7
  5
34
 10
25.4714257056
 20
14.9838457454
 30
0.0
 11
24.8028625338
 21
16.5380003021
 31
0.0
  0
ARC
  8
0
  6
CONTINUOUS
 62
         7
  5
35
 10
35.6163837353
 20
11.9383173107
 30
0.0
 40
11.7511414083
 50
138.8139865811
 51
156.9568437605
  0
LINE
  8
0
  6
CONTINUOUS
 62
         7
  5
36
 10
26.7727604944
 20
19.6765116977
 30
0.0
 11
26.7461358065
 21
18.1511843485
 31
0.0
  0
ARC
  8
0
  6
CONTINUOUS
 62
         7
  5
37
 10
26.7797956971
 20
18.150596813
 30
0.0
 40
0.0336650179
 50
178.9999999997
 51
359.0
  0
LINE
  8
0
  6
CONTINUOUS
 62
         7
  5
38
 10
26.8134555876
 20
18.1500092774
 30
0.0
 11
26.8414590734
 21
19.7543279027
 31
0.0
  0
ARC
  8
0
  6
CONTINUOUS
 62
         7
  5
39
 10
35.6163837353
 20
11.9383173107
 30
0.0
 40
11.7511414083
 50
108.9056736012
 51
138.3078709625
  0
LINE
  8
0
  6
CONTINUOUS
 62
         7
  5
3A
 10
31.9932417148
 20
19.4922182268
 30
0.0
 11
31.520701135
 21
18.4914803355
 31
0.0
  0
ARC
  8
0
  6
CONTINUOUS
 62
         7
  5
3B
 10
31.5541891353
 20
18.4756675646
 30
0.0
 40
0.0370336318
 50
154.7236864726
 51
334.7236864726
  0
LINE
  8
0
  6
CONTINUOUS
 62
         7
  5
3C
 10
31.5876771355
 20
18.4598547936
 30
0.0
 11
32.0906849037
 21
19.5251155454
 31
0.0
  0
ARC
  8
0
  6
CONTINUOUS
 62
         7
  5
3D
 10
35.8007419786
 20
8.3750123666
 30
0.0
 40
11.7511414083
 50
76.4385360035
 51
108.4042167057
  0
LINE
  8
0
  6
CONTINUOUS
 62
         7
  5
3E
 10
37.8590168144
 20
19.1308977502
 30
0.0
 11
38.5562476006
 21
19.7985194097
 31
0.0
  0
ARC
  8
0
  6
CONTINUOUS
 62
         7
  5
3F
 10
37.8921763557
 20
19.096267578
 30
0.0
 40
0.0479458445
 50
133.7572195533
 51
313.7572195533
  0
LINE
  8
0
  6
CONTINUOUS
 62
         7
  5
40
 10
38.6665281425
 20
19.7713536242
 30
0.0
 11
37.925335897
 21
19.0616374058
 31
0.0
  0
ARC
  8
0
  6
CONTINUOUS
 62
         7
  5
41
 10
35.8007419786
 20
8.3750123666
 30
0.0
 40
11.7511414083
 50
47.6749951142
 51
75.8847584024
  0
LINE
  8
0
  6
CONTINUOUS
 62
         7
  5
42
 10
43.7131995688
 20
17.0630696455
 30
0.0
 11
42.9311138537
 21
16.670952398
 31
0.0
  0
ARC
  8
0
  6
CONTINUOUS
 62
         7
  5
43
 10
42.9637419372
 20
16.6058750309
 30
0.0
 40
0.0727987331
 50
116.6279846112
 51
296.6279846112
  0
LINE
  8
0
  6
CONTINUOUS
 62
         7
  5
44
 10
42.9963700207
 20
16.5407976639
 30
0.0
 11
43.8275531334
 21
16.9575310576
 31
0.0
  0
ARC
  8
0
  6
CONTINUOUS
 62
         7
  5
45
 10
35.8007419786
 20
8.3750123666
 30
0.0
 40
11.7511414083
 50
35.0501111125
 51
46.9162617761
  0
LINE
  8
0
  6
CONTINUOUS
 62
         7
  5
46
 10
45.4208148192
 20
15.1236065119
 30
0.0
 11
45.3756007952
 21
12.5332742827
 31
0.0
  0
LINE
  8
0
  6
CONTINUOUS
 62
         7
  5
47
 10
45.3756007952
 20
12.5332742827
 30
0.0
 11
45.0637143583
 21
12.4659881076
 31
0.0
  0
ARC
  8
0
  6
CONTINUOUS
 62
         7
  5
48
 10
35.8007419786
 20
8.3750123666
 30
0.0
 40
10.1261414083
 50
23.8285675471
 51
162.0268422122
  0
ARC
  8
0
  6
CONTINUOUS
 62
         7
  5
49
 10
26.7598461446
 20
5.9642093301
 30
0.0
 40
5.5669117521
 50
96.0952265888
 51
101.4390730974
  0
LINE
  8
0
  6
CONTINUOUS
 62
         7
  5
4A
 10
25.6557839489
 20
11.4205408013
 30
0.0
 11
24.9872207771
 21
12.974695358
 31
0.0
  0
ARC
  8
0
  6
CONTINUOUS
 62
         7
  5
4B
 10
35.8007419786
 20
8.3750123666
 30
0.0
 40
11.7511414083
 50
138.8139865811
 51
156.9568437605
  0
LINE
  8
0
  6
CONTINUOUS
 62
         7
  5
4C
 10
26.9571187377
 20
16.1132067535
 30
0.0
 11
26.9304940498
 21
14.5878794044
 31
0.0
  0
ARC
  8
0
  6
CONTINUOUS
 62
         7
  5
4D
 10
26.9641539404
 20
14.5872918688
 30
0.0
 40
0.0336650179
 50
178.9999999997
 51
359.0
  0
LINE
  8
0
  6
CONTINUOUS
 62
         7
  5
4E
 10
26.9978138309
 20
14.5867043333
 30
0.0
 11
27.0258173167
 21
16.1910229586
 31
0.0
  0
ARC
  8
0
  6
CONTINUOUS
 62
         7
  5
4F
 10
35.8007419786
 20
8.3750123666
 30
0.0
 40
11.7511414083
 50
108.9056736012
 51
138.3078709625
  0
LINE
  8
0
  6
CONTINUOUS
 62
         7
  5
50
 10
32.1992130988
 20
16.056236849
 30
0.0
 11
31.7266725191
 21
15.0554989577
 31
0.0
  0
ARC
  8
0
  6
CONTINUOUS
 62
         7
  5
51
 10
31.7601605193
 20
15.0396861868
 30
0.0
 40
0.0370336318
 50
154.7236864726
 51
334.7236864726
  0
LINE
  8
0
  6
CONTINUOUS
 62
         7
  5
52
 10
31.7936485196
 20
15.0238734158
 30
0.0
 11
32.2966562878
 21
16.0891341676
 31
0.0
  0
ARC
  8
0
  6
CONTINUOUS
 62
         7
  5
53
 10
36.0067133627
 20
4.9390309888
 30
0.0
 40
11.7511414083
 50
76.4385360035
 51
108.4042167057
  0
LINE
  8
0
  6
CONTINUOUS
 62
         7
  5
54
 10
38.0649881984
 20
15.6949163724
 30
0.0
 11
38.7622189846
 21
16.3625380319
 31
0.0
  0
ARC
  8
0
  6
CONTINUOUS
 62
         7
  5
55
 10
38.0981477397
 20
15.6602862002
 30
0.0
 40
0.0479458445
 50
133.7572195533
 51
313.7572195533
  0
LINE
  8
0
  6
CONTINUOUS
 62
         7
  5
56
 10
38.8724995265
 20
16.3353722464
 30
0.0
 11
38.131307281
 21
15.625656028
 31
0.0
  0
ARC
  8
0
  6
CONTINUOUS
 62
         7
  5
57
 10
36.0067133627
 20
4.9390309888
 30
0.0
 40
11.7511414083
 50
47.6749951142
 51
75.8847584024
  0
LINE
  8
0
  6
CONTINUOUS
 62
         7
  5
58
 10
43.9191709528
 20
13.6270882677
 30
0.0
 11
43.1370852377
 21
13.2349710202
 31
0.0
  0
ARC
  8
0
  6
CONTINUOUS
 62
         7
  5
59
 10
43.1697133213
 20
13.1698936531
 30
0.0
 40
0.0727987331
 50
116.6279846112
 51
296.6279846112
  0
LINE
  8
0
  6
CONTINUOUS
 62
         7
  5
5A
 10
43.2023414048
 20
13.1048162861
 30
0.0
 11
44.0335245175
 21
13.5215496798
 31
0.0
  0
ARC
  8
0
  6
CONTINUOUS
 62
         7
  5
5B
 10
36.0067133627
 20
4.9390309888
 30
0.0
 40
11.7511414083
 50
35.0501111125
 51
46.9162617761
  0
LINE
  8
0
  6
CONTINUOUS
 62
         7
  5
5C
 10
45.6267862033
 20
11.6876251341
 30
0.0
 11
45.5815721793
 21
9.0972929049
 31
0.0
  0
LINE
  8
0
  6
CONTINUOUS
 62
         7
  5
5D
 10
45.5815721793
 20
9.0972929049
 30
0.0
 11
45.2696857423
 21
9.0300067298
 31
0.0
  0
ARC
  8
0
  6
CONTINUOUS
 62
         7
  5
5E
 10
36.0067133627
 20
4.9390309888
 30
0.0
 40
10.1261414083
 50
23.8285675471
 51
162.0268422122
  0
ARC
  8
0
  6
CONTINUOUS
 62
         7
  5
5F
 10
26.9658175286
 20
2.5282279523
 30
0.0
 40
5.5669117521
 50
96.0952265888
 51
101.4390730974
  0
LINE
  8
0
  6
CONTINUOUS
 62
         7
  5
60
 10
25.861755333
 20
7.9845594235
 30
0.0
 11
25.1931921612
 21
9.5387139802
 31
0.0
  0
ARC
  8
0
  6
CONTINUOUS
 62
         7
  5
61
 10
36.0067133627
 20
4.9390309888
 30
0.0
 40
11.7511414083
 50
138.8139865811
 51
156.9568437605
  0
LINE
  8
0
  6
CONTINUOUS
 62
         7
  5
62
 10
27.1630901218
 20
12.6772253758
 30
0.0
 11
27.1364654339
 21
11.1518980266
 31
0.0
  0
ARC
  8
0
  6
CONTINUOUS
 62
         7
  5
63
 10
27.1701253244
 20
11.151310491
 30
0.0
 40
0.0336650179
 50
178.9999999997
 51
359.0
  0
LINE
  8
0
  6
CONTINUOUS
 62
         7
  5
64
 10
27.203785215
 20
11.1507229555
 30
0.0
 11
27.2317887007
 21
12.7550415808
 31
0.0
  0
ARC
  8
0
  6
CONTINUOUS
 62
         7
  5
65
 10
36.0067133627
 20
4.9390309888
 30
0.0
 40
11.7511414083
 50
108.9056736012
 51
138.3078709625
  0
LINE
  8
0
  6
CONTINUOUS
 62
         7
  5
66
 10
31.9970695815
 20
11.8928085035
 30
0.0
 11
31.5245290018
 21
10.8920706123
 31
0.0
  0
ARC
  8
0
  6
CONTINUOUS
 62
         7
  5
67
 10
31.558017002
 20
10.8762578413
 30
0.0
 40
0.0370336318
 50
154.7236864726
 51
334.7236864726
  0
LINE
  8
0
  6
CONTINUOUS
 62
         7
  5
68
 10
31.5915050023
 20
10.8604450704
 30
0.0
 11
32.0945127705
 21
11.9257058221
 31
0.0
  0
ARC
  8
0
  6
CONTINUOUS
 62
         7
  5
69
 10
35.8045698454
 20
0.7756026433
 30
0.0
 40
11.7511414083
 50
76.4385360035
 51
108.4042167057
  0
LINE
  8
0
  6
CONTINUOUS
 62
         7
  5
6A
 10
37.8628446811
 20
11.531488027
 30
0.0
 11
38.5600754673
 21
12.1991096865
 31
0.0
  0
ARC
  8
0
  6
CONTINUOUS
 62
         7
  5
6B
 10
37.8960042224
 20
11.4968578548
 30
0.0
 40
0.0479458445
 50
133.7572195533
 51
313.7572195533
  0
LINE
  8
0
  6
CONTINUOUS
 62
         7
  5
6C
 10
38.6703560092
 20
12.1719439009
 30
0.0
 11
37.9291637637
 21
11.4622276825
 31
0.0
  0
ARC
  8
0
  6
CONTINUOUS
 62
         7
  5
6D
 10
35.8045698454
 20
0.7756026433
 30
0.0
 40
11.7511414083
 50
47.6749951142
 51
75.8847584024
  0
LINE
  8
0
  6
CONTINUOUS
 62
         7
  5
6E
 10
43.7170274355
 20
9.4636599222
 30
0.0
 11
42.9349417204
 21
9.0715426747
 31
0.0
  0
ARC
  8
0
  6
CONTINUOUS
 62
         7
  5
6F
 10
42.967569804
 20
9.0064653077
 30
0.0
 40
0.0727987331
 50
116.6279846112
 51
296.6279846112
  0
LINE
  8
0
  6
CONTINUOUS
 62
         7
  5
70
 10
43.0001978875
 20
8.9413879406
 30
0.0
 11
43.8313810002
 21
9.3581213344
 31
0.0
  0
ARC
  8
0
  6
CONTINUOUS
 62
         7
  5
71
 10
35.8045698454
 20
0.7756026433
 30
0.0
 40
11.7511414083
 50
35.0501111125
 51
46.9162617761
  0
LINE
  8
0
  6
CONTINUOUS
 62
         7
  5
72
 10
45.424642686
 20
7.5241967886
 30
0.0
 11
45.379428662
 21
4.9338645594
 31
0.0
  0
LINE
  8
0
  6
CONTINUOUS
 62
         7
  5
73
 10
45.379428662
 20
4.9338645594
 30
0.0
 11
45.067542225
 21
4.8665783844
 31
0.0
  0
ARC
  8
0
  6
CONTINUOUS
 62
         7
  5
74
 10
35.8045698454
 20
0.7756026433
 30
0.0
 40
10.1261414083
 50
23.8285675471
 51
162.0268422122
  0
ARC
  8
0
  6
CONTINUOUS
 62
         7
  5
75
 10
26.7636740113
 20
-1.6352003932
 30
0.0
 40
5.5669117521
 50
96.0952265888
 51
101.4390730974
  0
LINE
  8
0
  6
CONTINUOUS
 62
         7
  5
76
 10
25.6596118157
 20
3.821131078
 30
0.0
 11
24.9910486439
 21
5.3752856348
 31
0.0
  0
ARC
  8
0
  6
CONTINUOUS
 62
         7
  5
77
 10
35.8045698454
 20
0.7756026433
 30
0.0
 40
11.7511414083
 50
138.8139865811
 51
156.9568437605
  0
LINE
  8
0
  6
CONTINUOUS
 62
         7
  5
78
 10
26.9609466045
 20
8.5137970303
 30
0.0
 11
26.9343219166
 21
6.9884696812
 31
0.0
  0
ARC
  8
0
  6
CONTINUOUS
 62
         7
  5
79
 10
26.9679818071
 20
6.9878821456
 30
0.0
 40
0.0336650179
 50
178.9999999997
 51
359.0
  0
LINE
  8
0
  6
CONTINUOUS
 62
         7
  5
7A
 10
27.0016416977
 20
6.98729461
 30
0.0
 11
27.0296451834
 21
8.5916132353
 31
0.0
  0
ARC
  8
0
  6
CONTINUOUS
 62
         7
  5
7B
 10
35.8045698454
 20
0.7756026433
 30
0.0
 40
11.7511414083
 50
108.9056736012
 51
138.3078709625
  0
LINE
  8
0
  6
CONTINUOUS
 62
         7
  5
7C
 10
32.2030409656
 20
8.3574436238
 30
0.0
 11
31.7305003858
 21
7.3567057326
 31
0.0
  0
ARC
  8
0
  6
CONTINUOUS
 62
         7
  5
7D
 10
31.7639883861
 20
7.3408929616
 30
0.0
 40
0.0370336318
 50
154.7236864726
 51
334.7236864726
  0
LINE
  8
0
  6
CONTINUOUS
 62
         7
  5
7E
 10
31.7974763863
 20
7.3250801907
 30
0.0
 11
32.3004841546
 21
8.3903409424
 31
0.0
  0
ARC
  8
0
  6
CONTINUOUS
 62
         7
  5
7F
 10
36.0105412294
 20
-2.7597622364
 30
0.0
 40
11.7511414083
 50
76.4385360035
 51
108.4042167057
  0
LINE
  8
0
  6
CONTINUOUS
 62
         7
  5
80
 10
38.0688160652
 20
7.9961231473
 30
0.0
 11
38.7660468514
 21
8.6637448068
 31
0.0
  0
ARC
  8
0
  6
CONTINUOUS
 62
         7
  5
81
 10
38.1019756065
 20
7.9614929751
 30
0.0
 40
0.0479458445
 50
133.7572195533
 51
313.7572195533
  0
LINE
  8
0
  6
CONTINUOUS
 62
         7
  5
82
 10
38.8763273933
 20
8.6365790213
 30
0.0
 11
38.1351351478
 21
7.9268628028
 31
0.0
  0
ARC
  8
0
  6
CONTINUOUS
 62
         7
  5
83
 10
36.0105412294
 20
-2.7597622364
 30
0.0
 40
11.7511414083
 50
47.6749951142
 51
75.8847584024
  0
LINE
  8
0
  6
CONTINUOUS
 62
         7
  5
84
 10
43.9229988196
 20
5.9282950425
 30
0.0
 11
43.1409131045
 21
5.5361777951
 31
0.0
  0
ARC
  8
0
  6
CONTINUOUS
 62
         7
  5
85
 10
43.173541188
 20
5.471100428
 30
0.0
 40
0.0727987331
 50
116.6279846112
 51
296.6279846112
  0
LINE
  8
0
  6
CONTINUOUS
 62
         7
  5
86
 10
43.2061692715
 20
5.4060230609
 30
0.0
 11
44.0373523842
 21
5.8227564547
 31
0.0
  0
ARC
  8
0
  6
CONTINUOUS
 62
         7
  5
87
 10
36.0105412294
 20
-2.7597622364
 30
0.0
 40
11.7511414083
 50
35.0501111125
 51
46.9162617761
  0
LINE
  8
0
  6
CONTINUOUS
 62
         7
  5
88
 10
45.6306140701
 20
3.9888319089
 30
0.0
 11
45.5854000461
 21
1.3984996797
 31
0.0
  0
LINE
  8
0
  6
CONTINUOUS
 62
         7
  5
89
 10
45.5854000461
 20
1.3984996797
 30
0.0
 11
45.2735136091
 21
1.3312135047
 31
0.0
  0
ARC
  8
0
  6
CONTINUOUS
 62
         7
  5
8A
 10
36.0105412294
 20
-2.7597622364
 30
0.0
 40
10.1261414083
 50
23.8285675471
 51
162.0268422122
  0
ARC
  8
0
  6
CONTINUOUS
 62
         7
  5
8B
 10
26.9696453954
 20
-5.1705652729
 30
0.0
 40
5.5669117521
 50
96.0952265888
 51
101.4390730974
  0
LINE
  8
0
  6
CONTINUOUS
 62
         7
  5
8C
 10
25.8655831997
 20
0.2857661983
 30
0.0
 11
25.1970200279
 21
1.8399207551
 31
0.0
  0
ARC
  8
0
  6
CONTINUOUS
 62
         7
  5
8D
 10
36.0105412294
 20
-2.7597622364
 30
0.0
 40
11.7511414083
 50
138.8139865811
 51
156.9568437605
  0
LINE
  8
0
  6
CONTINUOUS
 62
         7
  5
8E
 10
27.1669179886
 20
4.9784321506
 30
0.0
 11
27.1402933006
 21
3.4531048015
 31
0.0
  0
ARC
  8
0
  6
CONTINUOUS
 62
         7
  5
8F
 10
27.1739531912
 20
3.4525172659
 30
0.0
 40
0.0336650179
 50
179.0
 51
358.9999999997
  0
LINE
  8
0
  6
CONTINUOUS
 62
         7
  5
90
 10
27.2076130817
 20
3.4519297303
 30
0.0
 11
27.2356165675
 21
5.0562483556
 31
0.0
  0
ARC
  8
0
  6
CONTINUOUS
 62
         7
  5
91
 10
36.0105412294
 20
-2.7597622364
 30
0.0
 40
11.7511414083
 50
108.9056736012
 51
138.3078709625
  0
LINE
  8
0
  6
CONTINUOUS
 62
         7
  5
92
 10
31.4943659664
 20
37.9035542657
 30
0.0
 11
31.0218253866
 21
36.9028163744
 31
0.0
  0
ARC
  8
0
  6
CONTINUOUS
 62
         7
  5
93
 10
31.0553133869
 20
36.8870036035
 30
0.0
 40
0.0370336318
 50
154.7236864726
 51
334.7236864726
  0
LINE
  8
0
  6
CONTINUOUS
 62
         7
  5
94
 10
31.0888013871
 20
36.8711908325
 30
0.0
 11
31.5918091554
 21
37.9364515843
 31
0.0
  0
ARC
  8
0
  6
CONTINUOUS
 62
         7
  5
95
 10
35.3018662302
 20
26.7863484055
 30
0.0
 40
11.7511414083
 50
76.4385360035
 51
108.4042167057
  0
LINE
  8
0
  6
CONTINUOUS
 62
         7
  5
96
 10
37.360141066
 20
37.5422337891
 30
0.0
 11
38.0573718522
 21
38.2098554486
 31
0.0
  0
ARC
  8
0
  6
CONTINUOUS
 62
         7
  5
97
 10
37.3933006073
 20
37.5076036169
 30
0.0
 40
0.0479458445
 50
133.7572195533
 51
313.7572195533
  0
LINE
  8
0
  6
CONTINUOUS
 62
         7
  5
98
 10
38.1676523941
 20
38.1826896631
 30
0.0
 11
37.4264601486
 21
37.4729734447
 31
0.0
  0
ARC
  8
0
  6
CONTINUOUS
 62
         7
  5
99
 10
35.3018662302
 20
26.7863484055
 30
0.0
 40
11.7511414083
 50
47.6749951142
 51
75.8847584024
  0
LINE
  8
0
  6
CONTINUOUS
 62
         7
  5
9A
 10
43.2143238204
 20
35.4744056843
 30
0.0
 11
42.4322381053
 21
35.0822884369
 31
0.0
  0
ARC
  8
0
  6
CONTINUOUS
 62
         7
  5
9B
 10
42.4648661888
 20
35.0172110698
 30
0.0
 40
0.0727987331
 50
116.6279846112
 51
296.6279846112
  0
LINE
  8
0
  6
CONTINUOUS
 62
         7
  5
9C
 10
42.4974942723
 20
34.9521337028
 30
0.0
 11
43.328677385
 21
35.3688670965
 31
0.0
  0
ARC
  8
0
  6
CONTINUOUS
 62
         7
  5
9D
 10
35.3018662302
 20
26.7863484055
 30
0.0
 40
11.7511414083
 50
35.0501111125
 51
46.9162617761
  0
LINE
  8
0
  6
CONTINUOUS
 62
         7
  5
9E
 10
44.9219390708
 20
33.5349425508
 30
0.0
 11
44.8767250468
 21
30.9446103216
 31
0.0
  0
LINE
  8
0
  6
CONTINUOUS
 62
         7
  5
9F
 10
44.8767250468
 20
30.9446103216
 30
0.0
 11
44.5648386099
 21
30.8773241465
 31
0.0
  0
ARC
  8
0
  6
CONTINUOUS
 62
         7
  5
A0
 10
35.3018662302
 20
26.7863484055
 30
0.0
 40
10.1261414083
 50
23.8285675471
 51
162.0268422122
  0
ARC
  8
0
  6
CONTINUOUS
 62
         7
  5
A1
 10
26.2609703962
 20
24.375545369
 30
0.0
 40
5.5669117521
 50
96.0952265888
 51
101.4390730974
  0
LINE
  8
0
  6
CONTINUOUS
 62
         7
  5
A2
 10
25.1569082005
 20
29.8318768402
 30
0.0
 11
24.4883450287
 21
31.3860313969
 31
0.0
  0
ARC
  8
0
  6
CONTINUOUS
 62
         7
  5
A3
 10
35.3018662302
 20
26.7863484055
 30
0.0
 40
11.7511414083
 50
138.8139865811
 51
156.9568437605
  0
LINE
  8
0
  6
CONTINUOUS
 62
         7
  5
A4
 10
26.4582429893
 20
34.5245427924
 30
0.0
 11
26.4316183014
 21
32.9992154433
 31
0.0
  0
ARC
  8
0
  6
CONTINUOUS
 62
         7
  5
A5
 10
26.465278192
 20
32.9986279077
 30
0.0
 40
0.0336650179
 50
179.0
 51
358.9999999997
  0
LINE
  8
0
  6
CONTINUOUS
 62
         7
  5
A6
 10
26.4989380825
 20
32.9980403722
 30
0.0
 11
26.5269415683
 21
34.6023589975
 31
0.0
  0
ARC
  8
0
  6
CONTINUOUS
 62
         7
  5
A7
 10
35.3018662302
 20
26.7863484055
 30
0.0
 40
11.7511414083
 50
108.9056736012
 51
138.3078709625
  0
LINE
  8
0
  6
CONTINUOUS
 62
         7
  5
A8
 10
31.6787242097
 20
34.3402493215
 30
0.0
 11
31.2061836299
 21
33.3395114303
 31
0.0
  0
ARC
  8
0
  6
CONTINUOUS
 62
         7
  5
A9
 10
31.2396716302
 20
33.3236986593
 30
0.0
 40
0.0370336318
 50
154.7236864726
 51
334.7236864726
  0
LINE
  8
0
  6
CONTINUOUS
 62
         7
  5
AA
 10
31.2731596304
 20
33.3078858884
 30
0.0
 11
31.7761673987
 21
34.3731466402
 31
0.0
  0
ARC
  8
0
  6
CONTINUOUS
 62
         7
  5
AB
 10
35.4862244735
 20
23.2230434613
 30
0.0
 40
11.7511414083
 50
76.4385360035
 51
108.4042167057
  0
LINE
  8
0
  6
CONTINUOUS
 62
         7
  5
AC
 10
37.5444993093
 20
33.978928845
 30
0.0
 11
38.2417300955
 21
34.6465505045
 31
0.0
  0
ARC
  8
0
  6
CONTINUOUS
 62
         7
  5
AD
 10
37.5776588506
 20
33.9442986728
 30
0.0
 40
0.0479458445
 50
133.7572195533
 51
313.7572195533
  0
LINE
  8
0
  6
CONTINUOUS
 62
         7
  5
AE
 10
38.3520106374
 20
34.619384719
 30
0.0
 11
37.6108183919
 21
33.9096685006
 31
0.0
  0
ARC
  8
0
  6
CONTINUOUS
 62
         7
  5
AF
 10
35.4862244735
 20
23.2230434613
 30
0.0
 40
11.7511414083
 50
47.6749951142
 51
75.8847584024
  0
LINE
  8
0
  6
CONTINUOUS
 62
         7
  5
B0
 10
43.3986820637
 20
31.9111007402
 30
0.0
 11
42.6165963486
 21
31.5189834928
 31
0.0
  0
ARC
  8
0
  6
CONTINUOUS
 62
         7
  5
B1
 10
42.6492244321
 20
31.4539061257
 30
0.0
 40
0.0727987331
 50
116.6279846112
 51
296.6279846112
  0
LINE
  8
0
  6
CONTINUOUS
 62
         7
  5
B2
 10
42.6818525156
 20
31.3888287586
 30
0.0
 11
43.5130356283
 21
31.8055621524
 31
0.0
  0
ARC
  8
0
  6
CONTINUOUS
 62
         7
  5
B3
 10
35.4862244735
 20
23.2230434613
 30
0.0
 40
11.7511414083
 50
35.0501111125
 51
46.9162617761
  0
LINE
  8
0
  6
CONTINUOUS
 62
         7
  5
B4
 10
45.1062973142
 20
29.9716376067
 30
0.0
 11
45.0610832902
 21
27.3813053774
 31
0.0
  0
LINE
  8
0
  6
CONTINUOUS
 62
         7
  5
B5
 10
45.0610832902
 20
27.3813053774
 30
0.0
 11
44.7491968532
 21
27.3140192024
 31
0.0
  0
ARC
  8
0
  6
CONTINUOUS
 62
         7
  5
B6
 10
35.4862244735
 20
23.2230434613
 30
0.0
 40
10.1261414083
 50
23.8285675471
 51
162.0268422122
  0
ARC
  8
0
  6
CONTINUOUS
 62
         7
  5
B7
 10
26.4453286395
 20
20.8122404248
 30
0.0
 40
5.5669117521
 50
96.0952265888
 51
101.4390730974
  0
LINE
  8
0
  6
CONTINUOUS
 62
         7
  5
B8
 10
25.3412664438
 20
26.2685718961
 30
0.0
 11
24.672703272
 21
27.8227264528
 31
0.0
  0
ARC
  8
0
  6
CONTINUOUS
 62
         7
  5
B9
 10
35.4862244735
 20
23.2230434613
 30
0.0
 40
11.7511414083
 50
138.8139865811
 51
156.9568437605
  0
LINE
  8
0
  6
CONTINUOUS
 62
         7
  5
BA
 10
26.6426012327
 20
30.9612378483
 30
0.0
 11
26.6159765447
 21
29.4359104992
 31
0.0
  0
ARC
  8
0
  6
CONTINUOUS
 62
         7
  5
BB
 10
26.6496364353
 20
29.4353229636
 30
0.0
 40
0.0336650179
 50
179.0
 51
358.9999999997
  0
LINE
  8
0
  6
CONTINUOUS
 62
         7
  5
BC
 10
26.6832963258
 20
29.434735428
 30
0.0
 11
26.7112998116
 21
31.0390540534
 31
0.0
  0
ARC
  8
0
  6
CONTINUOUS
 62
         7
  5
BD
 10
35.4862244735
 20
23.2230434613
 30
0.0
 40
11.7511414083
 50
108.9056736012
 51
138.3078709625
  0
LINE
  8
0
  6
CONTINUOUS
 62
         7
  5
BE
 10
31.8846955937
 20
30.9042679437
 30
0.0
 11
31.412155014
 21
29.9035300525
 31
0.0
  0
ARC
  8
0
  6
CONTINUOUS
 62
         7
  5
BF
 10
31.4456430142
 20
29.8877172815
 30
0.0
 40
0.0370336318
 50
154.7236864726
 51
334.7236864726
  0
LINE
  8
0
  6
CONTINUOUS
 62
         7
  5
C0
 10
31.4791310145
 20
29.8719045106
 30
0.0
 11
31.9821387827
 21
30.9371652624
 31
0.0
  0
ARC
  8
0
  6
CONTINUOUS
 62
         7
  5
C1
 10
35.6921958576
 20
19.7870620835
 30
0.0
 40
11.7511414083
 50
76.4385360035
 51
108.4042167057
  0
LINE
  8
0
  6
CONTINUOUS
 62
         7
  5
C2
 10
37.7504706934
 20
30.5429474672
 30
0.0
 11
38.4477014795
 21
31.2105691267
 31
0.0
  0
ARC
  8
0
  6
CONTINUOUS
 62
         7
  5
C3
 10
37.7836302347
 20
30.508317295
 30
0.0
 40
0.0479458445
 50
133.7572195533
 51
313.7572195533
  0
LINE
  8
0
  6
CONTINUOUS
 62
         7
  5
C4
 10
38.5579820214
 20
31.1834033412
 30
0.0
 11
37.8167897759
 21
30.4736871228
 31
0.0
  0
ARC
  8
0
  6
CONTINUOUS
 62
         7
  5
C5
 10
35.6921958576
 20
19.7870620835
 30
0.0
 40
11.7511414083
 50
47.6749951142
 51
75.8847584024
  0
LINE
  8
0
  6
CONTINUOUS
 62
         7
  5
C6
 10
43.6046534477
 20
28.4751193624
 30
0.0
 11
42.8225677326
 21
28.083002115
 31
0.0
  0
ARC
  8
0
  6
CONTINUOUS
 62
         7
  5
C7
 10
42.8551958162
 20
28.0179247479
 30
0.0
 40
0.0727987331
 50
116.6279846112
 51
296.6279846112
  0
LINE
  8
0
  6
CONTINUOUS
 62
         7
  5
C8
 10
42.8878238997
 20
27.9528473808
 30
0.0
 11
43.7190070124
 21
28.3695807746
 31
0.0
  0
ARC
  8
0
  6
CONTINUOUS
 62
         7
  5
C9
 10
35.6921958576
 20
19.7870620835
 30
0.0
 40
11.7511414083
 50
35.0501111125
 51
46.9162617761
  0
LINE
  8
0
  6
CONTINUOUS
 62
         7
  5
CA
 10
45.3122686982
 20
26.5356562289
 30
0.0
 11
45.2670546742
 21
23.9453239996
 31
0.0
  0
LINE
  8
0
  6
CONTINUOUS
 62
         7
  5
CB
 10
45.2670546742
 20
23.9453239996
 30
0.0
 11
44.9551682372
 21
23.8780378246
 31
0.0
  0
ARC
  8
0
  6
CONTINUOUS
 62
         7
  5
CC
 10
35.6921958576
 20
19.7870620835
 30
0.0
 40
10.1261414083
 50
23.8285675471
 51
162.0268422122
  0
ARC
  8
0
  6
CONTINUOUS
 62
         7
  5
CD
 10
26.6513000235
 20
17.376259047
 30
0.0
 40
5.5669117521
 50
96.0952265888
 51
101.4390730974
  0
LINE
  8
0
  6
CONTINUOUS
 62
         7
  5
CE
 10
25.5472378279
 20
22.8325905183
 30
0.0
 11
24.8786746561
 21
24.386745075
 31
0.0
  0
ARC
  8
0
  6
CONTINUOUS
 62
         7
  5
CF
 10
35.6921958576
 20
19.7870620835
 30
0.0
 40
11.7511414083
 50
138.8139865811
 51
156.9568437605
  0
LINE
  8
0
  6
CONTINUOUS
 62
         7
  5
D0
 10
26.8485726167
 20
27.5252564705
 30
0.0
 11
26.8219479288
 21
25.9999291214
 31
0.0
  0
ARC
  8
0
  6
CONTINUOUS
 62
         7
  5
D1
 10
26.8556078193
 20
25.9993415858
 30
0.0
 40
0.0336650179
 50
178.9999999996
 51
359.0
  0
LINE
  8
0
  6
CONTINUOUS
 62
         7
  5
D2
 10
26.8892677099
 20
25.9987540502
 30
0.0
 11
26.9172711957
 21
27.6030726756
 31
0.0
  0
ARC
  8
0
  6
CONTINUOUS
 62
         7
  5
D3
 10
35.6921958576
 20
19.7870620835
 30
0.0
 40
11.7511414083
 50
108.9056736012
 51
138.3078709625
  0
LINE
  8
0
  6
CONTINUOUS
 62
         7
  5
D4
 10
31.6825520764
 20
26.7408395983
 30
0.0
 11
31.2100114967
 21
25.740101707
 31
0.0
  0
ARC
  8
0
  6
CONTINUOUS
 62
         7
  5
D5
 10
31.2434994969
 20
25.7242889361
 30
0.0
 40
0.0370336318
 50
154.7236864726
 51
334.7236864726
  0
LINE
  8
0
  6
CONTINUOUS
 62
         7
  5
D6
 10
31.2769874972
 20
25.7084761651
 30
0.0
 11
31.7799952654
 21
26.7737369169
 31
0.0
  0
ARC
  8
0
  6
CONTINUOUS
 62
         7
  5
D7
 10
35.4900523403
 20
15.6236337381
 30
0.0
 40
11.7511414083
 50
76.4385360035
 51
108.4042167057
  0
LINE
  8
0
  6
CONTINUOUS
 62
         7
  5
D8
 10
37.5483271761
 20
26.3795191217
 30
0.0
 11
38.2455579622
 21
27.0471407812
 31
0.0
  0
ARC
  8
0
  6
CONTINUOUS
 62
         7
  5
D9
 10
37.5814867174
 20
26.3448889495
 30
0.0
 40
0.0479458445
 50
133.7572195533
 51
313.7572195533
  0
LINE
  8
0
  6
CONTINUOUS
 62
         7
  5
DA
 10
38.3558385041
 20
27.0199749957
 30
0.0
 11
37.6146462586
 21
26.3102587773
 31
0.0
  0
ARC
  8
0
  6
CONTINUOUS
 62
         7
  5
DB
 10
35.4900523403
 20
15.6236337381
 30
0.0
 40
11.7511414083
 50
47.6749951142
 51
75.8847584024
  0
LINE
  8
0
  6
CONTINUOUS
 62
         7
  5
DC
 10
43.4025099304
 20
24.311691017
 30
0.0
 11
42.6204242153
 21
23.9195737695
 31
0.0
  0
ARC
  8
0
  6
CONTINUOUS
 62
         7
  5
DD
 10
42.6530522989
 20
23.8544964025
 30
0.0
 40
0.0727987331
 50
116.6279846112
 51
296.6279846112
  0
LINE
  8
0
  6
CONTINUOUS
 62
         7
  5
DE
 10
42.6856803824
 20
23.7894190354
 30
0.0
 11
43.5168634951
 21
24.2061524292
 31
0.0
  0
ARC
  8
0
  6
CONTINUOUS
 62
         7
  5
DF
 10
35.4900523403
 20
15.6236337381
 30
0.0
 40
11.7511414083
 50
35.0501111125
 51
46.9162617761
  0
LINE
  8
0
  6
CONTINUOUS
 62
         7
  5
E0
 10
45.1101251809
 20
22.3722278834
 30
0.0
 11
45.0649111569
 21
19.7818956542
 31
0.0
  0
LINE
  8
0
  6
CONTINUOUS
 62
         7
  5
E1
 10
45.0649111569
 20
19.7818956542
 30
0.0
 11
44.7530247199
 21
19.7146094792
 31
0.0
  0
ARC
  8
0
  6
CONTINUOUS
 62
         7
  5
E2
 10
35.4900523403
 20
15.6236337381
 30
0.0
 40
10.1261414083
 50
23.8285675471
 51
162.0268422122
  0
ARC
  8
0
  6
CONTINUOUS
 62
         7
  5
E3
 10
26.4491565062
 20
13.2128307016
 30
0.0
 40
5.5669117521
 50
96.0952265888
 51
101.4390730974
  0
LINE
  8
0
  6
CONTINUOUS
 62
         7
  5
E4
 10
25.3450943106
 20
18.6691621728
 30
0.0
 11
24.6765311388
 21
20.2233167295
 31
0.0
  0
ARC
  8
0
  6
CONTINUOUS
 62
         7
  5
E5
 10
35.4900523403
 20
15.6236337381
 30
0.0
 40
11.7511414083
 50
138.8139865811
 51
156.9568437605
  0
LINE
  8
0
  6
CONTINUOUS
 62
         7
  5
E6
 10
26.6464290994
 20
23.3618281251
 30
0.0
 11
26.6198044115
 21
21.8365007759
 31
0.0
  0
ARC
  8
0
  6
CONTINUOUS
 62
         7
  5
E7
 10
26.653464302
 20
21.8359132404
 30
0.0
 40
0.0336650179
 50
179.0
 51
358.9999999996
  0
LINE
  8
0
  6
CONTINUOUS
 62
         7
  5
E8
 10
26.6871241926
 20
21.8353257048
 30
0.0
 11
26.7151276784
 21
23.4396443301
 31
0.0
  0
ARC
  8
0
  6
CONTINUOUS
 62
         7
  5
E9
 10
35.4900523403
 20
15.6236337381
 30
0.0
 40
11.7511414083
 50
108.9056736012
 51
138.3078709625
  0
LINE
  8
0
  6
CONTINUOUS
 62
         7
  5
EA
 10
31.169488672
 20
44.9998854978
 30
0.0
 11
30.6969480922
 21
43.9991476066
 31
0.0
  0
ARC
  8
0
  6
CONTINUOUS
 62
         7
  5
EB
 10
30.7304360925
 20
43.9833348356
 30
0.0
 40
0.0370336318
 50
154.7236864726
 51
334.7236864726
  0
LINE
  8
0
  6
CONTINUOUS
 62
         7
  5
EC
 10
30.7639240927
 20
43.9675220647
 30
0.0
 11
31.266931861
 21
45.0327828164
 31
0.0
  0
ARC
  8
0
  6
CONTINUOUS
 62
         7
  5
ED
 10
34.9769889358
 20
33.8826796376
 30
0.0
 40
11.7511414083
 50
76.4385360035
 51
108.4042167057
  0
LINE
  8
0
  6
CONTINUOUS
 62
         7
  5
EE
 10
37.0352637716
 20
44.6385650213
 30
0.0
 11
37.7324945578
 21
45.3061866808
 31
0.0
  0
ARC
  8
0
  6
CONTINUOUS
 62
         7
  5
EF
 10
37.0684233129
 20
44.6039348491
 30
0.0
 40
0.0479458445
 50
133.7572195533
 51
313.7572195533
  0
LINE
  8
0
  6
CONTINUOUS
 62
         7
  5
F0
 10
37.8427750997
 20
45.2790208952
 30
0.0
 11
37.1015828542
 21
44.5693046768
 31
0.0
  0
ARC
  8
0
  6
CONTINUOUS
 62
         7
  5
F1
 10
34.9769889358
 20
33.8826796376
 30
0.0
 40
11.7511414083
 50
47.6749951142
 51
75.8847584024
  0
LINE
  8
0
  6
CONTINUOUS
 62
         7
  5
F2
 10
42.889446526
 20
42.5707369165
 30
0.0
 11
42.1073608109
 21
42.178619669
 31
0.0
  0
ARC
  8
0
  6
CONTINUOUS
 62
         7
  5
F3
 10
42.1399888944
 20
42.113542302
 30
0.0
 40
0.0727987331
 50
116.6279846112
 51
296.6279846112
  0
LINE
  8
0
  6
CONTINUOUS
 62
         7
  5
F4
 10
42.1726169779
 20
42.0484649349
 30
0.0
 11
43.0038000906
 21
42.4651983287
 31
0.0
  0
ARC
  8
0
  6
CONTINUOUS
 62
         7
  5
F5
 10
34.9769889358
 20
33.8826796376
 30
0.0
 40
11.7511414083
 50
35.0501111125
 51
46.9162617761
  0
LINE
  8
0
  6
CONTINUOUS
 62
         7
  5
F6
 10
44.5970617765
 20
40.6312737829
 30
0.0
 11
44.5518477525
 21
38.0409415537
 31
0.0
  0
LINE
  8
0
  6
CONTINUOUS
 62
         7
  5
F7
 10
44.5518477525
 20
38.0409415537
 30
0.0
 11
44.2399613155
 21
37.9736553787
 31
0.0
  0
ARC
  8
0
  6
CONTINUOUS
 62
         7
  5
F8
 10
34.9769889358
 20
33.8826796376
 30
0.0
 40
10.1261414083
 50
23.8285675471
 51
162.0268422122
  0
ARC
  8
0
  6
CONTINUOUS
 62
         7
  5
F9
 10
25.9360931018
 20
31.4718766011
 30
0.0
 40
5.5669117521
 50
96.0952265888
 51
101.4390730974
  0
LINE
  8
0
  6
CONTINUOUS
 62
         7
  5
FA
 10
24.8320309062
 20
36.9282080723
 30
0.0
 11
24.1634677343
 21
38.482362629
 31
0.0
  0
ARC
  8
0
  6
CONTINUOUS
 62
         7
  5
FB
 10
34.9769889358
 20
33.8826796376
 30
0.0
 40
11.7511414083
 50
138.8139865811
 51
156.9568437605
  0
LINE
  8
0
  6
CONTINUOUS
 62
         7
  5
FC
 10
26.133365695
 20
41.6208740246
 30
0.0
 11
26.106741007
 21
40.0955466755
 31
0.0
  0
ARC
  8
0
  6
CONTINUOUS
 62
         7
  5
FD
 10
26.1404008976
 20
40.0949591399
 30
0.0
 40
0.0336650179
 50
179.0
 51
358.9999999996
  0
LINE
  8
0
  6
CONTINUOUS
 62
         7
  5
FE
 10
26.1740607881
 20
40.0943716043
 30
0.0
 11
26.2020642739
 21
41.6986902296
 31
0.0
  0
ARC
  8
0
  6
CONTINUOUS
 62
         7
  5
FF
 10
34.9769889358
 20
33.8826796376
 30
0.0
 40
11.7511414083
 50
108.9056736012
 51
138.3078709625
  0
LINE
  8
0
  6
CONTINUOUS
 62
         7
  5
100
 10
31.357201186
 20
41.4450901023
 30
0.0
 11
30.8846606063
 21
40.4443522111
 31
0.0
  0
ARC
  8
0
  6
CONTINUOUS
 62
         7
  5
101
 10
30.9181486065
 20
40.4285394401
 30
0.0
 40
0.0370336318
 50
154.7236864726
 51
334.7236864726
  0
LINE
  8
0
  6
CONTINUOUS
 62
         7
  5
102
 10
30.9516366068
 20
40.4127266692
 30
0.0
 11
31.454644375
 21
41.477987421
 31
0.0
  0
ARC
  8
0
  6
CONTINUOUS
 62
         7
  5
103
 10
35.1647014499
 20
30.3278842422
 30
0.0
 40
11.7511414083
 50
76.4385360035
 51
108.4042167057
  0
LINE
  8
0
  6
CONTINUOUS
 62
         7
  5
104
 10
37.2229762856
 20
41.0837696258
 30
0.0
 11
37.9202070718
 21
41.7513912853
 31
0.0
  0
ARC
  8
0
  6
CONTINUOUS
 62
         7
  5
105
 10
37.2561358269
 20
41.0491394536
 30
0.0
 40
0.0479458445
 50
133.7572195533
 51
313.7572195533
  0
LINE
  8
0
  6
CONTINUOUS
 62
         7
  5
106
 10
38.0304876137
 20
41.7242254998
 30
0.0
 11
37.2892953682
 21
41.0145092814
 31
0.0
  0
ARC
  8
0
  6
CONTINUOUS
 62
         7
  5
107
 10
35.1647014499
 20
30.3278842422
 30
0.0
 40
11.7511414083
 50
47.6749951142
 51
75.8847584024
  0
LINE
  8
0
  6
CONTINUOUS
 62
         7
  5
108
 10
43.07715904
 20
39.015941521
 30
0.0
 11
42.2950733249
 21
38.6238242736
 31
0.0
  0
ARC
  8
0
  6
CONTINUOUS
 62
         7
  5
109
 10
42.3277014085
 20
38.5587469065
 30
0.0
 40
0.0727987331
 50
116.6279846112
 51
296.6279846112
  0
LINE
  8
0
  6
CONTINUOUS
 62
         7
  5
10A
 10
42.360329492
 20
38.4936695395
 30
0.0
 11
43.1915126047
 21
38.9104029332
 31
0.0
  0
ARC
  8
0
  6
CONTINUOUS
 62
         7
  5
10B
 10
35.1647014499
 20
30.3278842422
 30
0.0
 40
11.7511414083
 50
35.0501111125
 51
46.9162617761
  0
LINE
  8
0
  6
CONTINUOUS
 62
         7
  5
10C
 10
44.7847742905
 20
37.0764783875
 30
0.0
 11
44.7395602665
 21
34.4861461582
 31
0.0
  0
LINE
  8
0
  6
CONTINUOUS
 62
         7
  5
10D
 10
44.7395602665
 20
34.4861461582
 30
0.0
 11
44.4276738295
 21
34.4188599832
 31
0.0
  0
ARC
  8
0
  6
CONTINUOUS
 62
         7
  5
10E
 10
35.1647014499
 20
30.3278842422
 30
0.0
 40
10.1261414083
 50
23.8285675471
 51
162.0268422122
  0
ARC
  8
0
  6
CONTINUOUS
 62
         7
  5
10F
 10
26.1238056158
 20
27.9170812056
 30
0.0
 40
5.5669117521
 50
96.0952265888
 51
101.4390730974
  0
LINE
  8
0
  6
CONTINUOUS
 62
         7
  5
110
 10
25.0197434202
 20
33.3734126769
 30
0.0
 11
24.3511802484
 21
34.9275672336
 31
0.0
  0
ARC
  8
0
  6
CONTINUOUS
 62
         7
  5
111
 10
35.1647014499
 20
30.3278842422
 30
0.0
 40
11.7511414083
 50
138.8139865811
 51
156.9568437605
  0
LINE
  8
0
  6
CONTINUOUS
 62
         7
  5
112
 10
26.321078209
 20
38.0660786291
 30
0.0
 11
26.2944535211
 21
36.54075128
 31
0.0
  0
ARC
  8
0
  6
CONTINUOUS
 62
         7
  5
113
 10
26.3281134116
 20
36.5401637444
 30
0.0
 40
0.0336650179
 50
178.9999999996
 51
359.0
  0
LINE
  8
0
  6
CONTINUOUS
 62
         7
  5
114
 10
26.3617733022
 20
36.5395762088
 30
0.0
 11
26.3897767879
 21
38.1438948342
 31
0.0
  0
ARC
  8
0
  6
CONTINUOUS
 62
         7
  5
115
 10
35.1647014499
 20
30.3278842422
 30
0.0
 40
11.7511414083
 50
108.9056736012
 51
138.3078709625
  0
ENDSEC
  0
EOF
