  0
SECTION
  2
HEADER
  9
$ACADVER
  1
AC1009
  9
$DWGCODEPAGE
  3
ansi_1252
  9
$INSBASE
 10
0.0
 20
0.0
 30
0.0
  9
$EXTMIN
 10
0.0
 20
0.0
 30
0.0
  9
$EXTMAX
 10
48.0
 20
48.0
 30
0.0
  9
$LIMMIN
 10
0.0
 20
0.0
  9
$LIMMAX
 10
0.0
 20
0.0
  9
$ORTHOMODE
 70
         0
  9
$REGENMODE
 70
         1
  9
$FILLMODE
 70
         1
  9
$QTEXTMODE
 70
         0
  9
$MIRRTEXT
 70
         1
  9
$DRAGMODE
 70
         2
  9
$LTSCALE
 40
1.0
  9
$OSMODE
 70
         0
  9
$ATTMODE
 70
         1
  9
$TEXTSIZE
 40
0.1377952756
  9
$TRACEWID
 40
0.05
  9
$TEXTSTYLE
  7
STANDARD
  9
$CLAYER
  8
0
  9
$CELTYPE
  6
CONTINUOUS
  9
$CECOLOR
 62
       256
  9
$DIMSCALE
 40
1.0
  9
$DIMASZ
 40
0.0
  9
$DIMEXO
 40
0.0
  9
$DIMDLI
 40
0.38
  9
$DIMRND
 40
0.0
  9
$DIMDLE
 40
0.0
  9
$DIMEXE
 40
0.18
  9
$DIMTP
 40
0.0
  9
$DIMTM
 40
0.0
  9
$DIMTXT
 40
0.1377952756
  9
$DIMCEN
 40
0.09
  9
$DIMTSZ
 40
0.0
  9
$DIMTOL
 70
         0
  9
$DIMLIM
 70
         0
  9
$DIMTIH
 70
         1
  9
$DIMTOH
 70
         1
  9
$DIMSE1
 70
         0
  9
$DIMSE2
 70
         0
  9
$DIMTAD
 70
         1
  9
$DIMZIN
 70
         0
  9
$DIMBLK
  1

  9
$DIMASO
 70
         1
  9
$DIMSHO
 70
         1
  9
$DIMPOST
  1

  9
$DIMAPOST
  1

  9
$DIMALT
 70
         0
  9
$DIMALTD
 70
         2
  9
$DIMALTF
 40
25.4
  9
$DIMLFAC
 40
1.0
  9
$DIMTOFL
 70
         0
  9
$DIMTVP
 40
0.0
  9
$DIMTIX
 70
         0
  9
$DIMSOXD
 70
         0
  9
$DIMSAH
 70
         0
  9
$DIMBLK1
  1

  9
$DIMBLK2
  1

  9
$DIMSTYLE
  2
STANDARD
  9
$DIMCLRD
 70
         0
  9
$DIMCLRE
 70
         0
  9
$DIMCLRT
 70
         0
  9
$DIMTFAC
 40
1.0
  9
$DIMGAP
 40
0.0
  9
$LUNITS
 70
         2
  9
$LUPREC
 70
         2
  9
$AXISMODE
 70
         0
  9
$AXISUNIT
 10
0.0
 20
0.0
  9
$SKETCHINC
 40
0.1
  9
$FILLETRAD
 40
0.0
  9
$AUNITS
 70
         0
  9
$AUPREC
 70
         2
  9
$MENU
  1
acad
  9
$ELEVATION
 40
0.0
  9
$PELEVATION
 40
0.0
  9
$THICKNESS
 40
0.0
  9
$LIMCHECK
 70
         0
  9
$BLIPMODE
 70
         1
  9
$CHAMFERA
 40
0.0
  9
$CHAMFERB
 40
0.0
  9
$SKPOLY
 70
         0
  9
$TDCREATE
 40
0.000000000
  9
$TDUPDATE
 40
0.000000000
  9
$TDINDWG
 40
0.0000000000
  9
$TDUSRTIMER
 40
0.0000000000
  9
$USRTIMER
 70
         1
  9
$ANGBASE
 50
0.0
  9
$ANGDIR
 70
         0
  9
$PDMODE
 70
         0
  9
$PDSIZE
 40
-1.0
  9
$PLINEWID
 40
0.0
  9
$COORDS
 70
         0
  9
$SPLFRAME
 70
         0
  9
$SPLINETYPE
 70
         6
  9
$SPLINESEGS
 70
         8
  9
$ATTDIA
 70
         0
  9
$ATTREQ
 70
         1
  9
$HANDLING
 70
         1
  9
$HANDSEED
  5
12E
  9
$SURFTAB1
 70
         6
  9
$SURFTAB2
 70
         6
  9
$SURFTYPE
 70
         6
  9
$SURFU
 70
         6
  9
$SURFV
 70
         6
  9
$UCSNAME
  2

  9
$UCSORG
 10
0.0
 20
0.0
 30
0.0
  9
$UCSXDIR
 10
1.0
 20
0.0
 30
0.0
  9
$UCSYDIR
 10
0.0
 20
1.0
 30
0.0
  9
$PUCSNAME
  2

  9
$PUCSORG
 10
0.0
 20
0.0
 30
0.0
  9
$PUCSXDIR
 10
1.0
 20
0.0
 30
0.0
  9
$PUCSYDIR
 10
0.0
 20
1.0
 30
0.0
  9
$USERI1
 70
         0
  9
$USERI2
 70
         0
  9
$USERI3
 70
         0
  9
$USERI4
 70
         0
  9
$USERI5
 70
         0
  9
$USERR1
 40
0.0
  9
$USERR2
 40
0.0
  9
$USERR3
 40
0.0
  9
$USERR4
 40
0.0
  9
$USERR5
 40
0.0
  9
$WORLDVIEW
 70
         1
  9
$SHADEDGE
 70
         3
  9
$SHADEDIF
 70
        70
  9
$TILEMODE
 70
         1
  9
$MAXACTVP
 70
        16
  9
$PINSBASE
 10
0.0
 20
0.0
 30
0.0
  9
$PLIMCHECK
 70
         0
  9
$PEXTMIN
 10
1.0000000000E+20
 20
1.0000000000E+20
 30
1.0000000000E+20
  9
$PEXTMAX
 10
-1.0000000000E+20
 20
-1.0000000000E+20
 30
-1.0000000000E+20
  9
$PLIMMIN
 10
0.0
 20
0.0
  9
$PLIMMAX
 10
12.0
 20
9.0
  9
$UNITMODE
 70
         0
  9
$VISRETAIN
 70
         0
  9
$PLINEGEN
 70
         1
  9
$PSLTSCALE
 70
         1
  9
$TREEDEPTH
 70
      3020
  0
ENDSEC
  0
SECTION
  2
TABLES
  0
TABLE
  2
VPORT
 70
         1
  0
VPORT
  2
*ACTIVE
 70
         0
 10
0.0
 20
0.0
 11
1.0
 21
1.0
 12
24.0
 22
24.0
 13
0.0
 23
0.0
 14
1.0
 24
1.0
 15
0.0
 25
0.0
 16
0.0
 26
0.0
 36
1.0
 17
0.0
 27
0.0
 37
0.0
 40
48.0
 41
1.0
 42
50.0
 43
0.0
 44
0.0
 50
0.0
 51
0.0
 71
         0
 72
      2000
 73
         1
 74
         1
 75
         0
 76
         0
 77
         0
 78
         0
  0
ENDTAB
  0
TABLE
  2
LTYPE
 70
         6
  0
LTYPE
  2
CONTINUOUS
 70
        64
  3
Solid line
 72
        65
 73
         0
 40
0.0
  0
LTYPE
  2
HIDDEN
 70
        64
  3
Hidden __ __ __ __ __ __ __ __ __ __ __ __ __ __
 72
        65
 73
         2
 40
0.075
 49
0.05
 49
-0.025
  0
LTYPE
  2
PHANTOM
 70
        64
  3
Phantom ______  __  __  ______  __  __  ______
 72
        65
 73
         6
 40
0.5
 49
0.25
 49
-0.05
 49
0.05
 49
-0.05
 49
0.05
 49
-0.05
  0
LTYPE
  2
CENTER
 70
        64
  3
Center ____ _ ____ _ ____ _ ____ _ ____ _ ____
 72
        65
 73
         4
 40
0.4
 49
0.25
 49
-0.05
 49
0.05
 49
-0.05
  0
LTYPE
  2
CENTERX2
 70
        64
  3
Center (2x) ________  __  ________  __  _____
 72
        65
 73
         4
 40
0.8
 49
0.5
 49
-0.1
 49
0.1
 49
-0.1
  0
LTYPE
  2
DOT2
 70
        64
  3
Dot (.5x) ........................................
 72
        65
 73
         2
 40
0.025
 49
0.0
 49
-0.025
  0
ENDTAB
  0
TABLE
  2
LAYER
 70
         2
  0
LAYER
  2
0
 70
         0
 62
         7
  6
CONTINUOUS
  0
LAYER
  2
DEFPOINTS
 70
         0
 62
         7
  6
CONTINUOUS
  0
ENDTAB
  0
TABLE
  2
STYLE
 70
         1
  0
STYLE
  2
STANDARD
 70
         0
 40
0.0
 41
1.0
 50
0.0
 71
         0
 42
0.0
  3
txt
  4

  0
ENDTAB
  0
TABLE
  2
VIEW
 70
         0
  0
ENDTAB
  0
TABLE
  2
UCS
 70
         0
  0
ENDTAB
  0
TABLE
  2
APPID
 70
         1
  0
APPID
  2
ACAD
 70
         0
  0
ENDTAB
  0
TABLE
  2
DIMSTYLE
 70
         1
  0
DIMSTYLE
  2
STANDARD
 70
         0
  3

  4

  5

  6

  7

 40
1.0
 41
0.18
 42
0.0625
 43
0.38
 44
0.18
 45
0.0
 46
0.0
 47
0.0
 48
0.0
 71
         0
 72
         0
 73
         1
 74
         1
 75
         0
 76
         0
 77
         0
 78
         0
140
0.18
141
0.09
142
0.0
143
25.4
144
1.0
145
0.0
146
1.0
147
0.09
170
         0
171
         2
172
         0
173
         0
174
         0
175
         0
176
         0
177
         0
178
         0
  0
ENDTAB
  0
ENDSEC
  0
SECTION
  2
BLOCKS
  0
ENDSEC
  0
SECTION
  2
ENTITIES
  0
LINE
  8
0
  6
CONTINUOUS
 62
         7
  5
24
 10
2.7801099551
 20
14.5866348061
 30
0.0
 11
2.903894095
 21
14.6040315324
 31
0.0
  0
LINE
  8
0
  6
CONTINUOUS
 62
         7
  5
25
 10
2.4669708647
 20
16.814738034
 30
0.0
 11
2.7801099551
 21
14.5866348061
 31
0.0
  0
ARC
  8
0
  6
CONTINUOUS
 62
         7
  5
26
 10
22.134096895
 20
10.4737807088
 30
0.0
 40
5.0915929259
 50
69.6871277729
 51
91.3156905637
  0
ARC
  8
0
  6
CONTINUOUS
 62
         7
  5
27
 10
12.8377838785
 20
11.2888388467
 30
0.0
 40
10.1261414083
 50
24.9731577878
 51
35.5862362465
  0
LINE
  8
0
  6
CONTINUOUS
 62
         7
  5
28
 10
20.8824024848
 20
18.5360765998
 30
0.0
 11
21.0727729582
 21
17.1815202973
 31
0.0
  0
ARC
  8
0
  6
CONTINUOUS
 62
         7
  5
29
 10
20.8514189055
 20
18.5317221417
 30
0.0
 40
0.0312880726
 50
8.0000000001
 51
188.0
  0
LINE
  8
0
  6
CONTINUOUS
 62
         7
  5
2A
 10
20.9944017025
 20
17.2895325977
 30
0.0
 11
20.8204353263
 21
18.5273676837
 31
0.0
  0
ARC
  8
0
  6
CONTINUOUS
 62
         7
  5
2B
 10
12.8377838785
 20
11.2888388467
 30
0.0
 40
10.1261414083
 50
36.3413250449
 51
68.2992536016
  0
LINE
  8
0
  6
CONTINUOUS
 62
         7
  5
2C
 10
15.8530346378
 20
21.8515059648
 30
0.0
 11
16.5820143935
 21
20.6973178774
 31
0.0
  0
ARC
  8
0
  6
CONTINUOUS
 62
         7
  5
2D
 10
15.821723344
 20
21.8317298993
 30
0.0
 40
0.0370336318
 50
32.2763135274
 51
212.2763135274
  0
LINE
  8
0
  6
CONTINUOUS
 62
         7
  5
2E
 10
16.4656980245
 20
20.742778701
 30
0.0
 11
15.7904120502
 21
21.8119538337
 31
0.0
  0
ARC
  8
0
  6
CONTINUOUS
 62
         7
  5
2F
 10
12.8377838785
 20
11.2888388467
 30
0.0
 40
10.1261414083
 50
69.0058811666
 51
104.4417882712
  0
LINE
  8
0
  6
CONTINUOUS
 62
         7
  5
30
 10
10.312362182
 20
21.0950096118
 30
0.0
 11
9.4840384218
 21
21.7137108889
 31
0.0
  0
ARC
  8
0
  6
CONTINUOUS
 62
         7
  5
31
 10
9.4553464031
 20
21.6752977132
 30
0.0
 40
0.0479458445
 50
53.2427804467
 51
233.2427804467
  0
LINE
  8
0
  6
CONTINUOUS
 62
         7
  5
32
 10
9.4266543843
 20
21.6368845375
 30
0.0
 11
10.1939671158
 21
21.063754332
 31
0.0
  0
ARC
  8
0
  6
CONTINUOUS
 62
         7
  5
33
 10
12.8377838785
 20
11.2888388467
 30
0.0
 40
10.1261414083
 50
105.1346461502
 51
135.7414308019
  0
LINE
  8
0
  6
CONTINUOUS
 62
         7
  5
34
 10
4.7495399496
 20
18.6539684605
 30
0.0
 11
5.5854659743
 21
18.3558484573
 31
0.0
  0
ARC
  8
0
  6
CONTINUOUS
 62
         7
  5
35
 10
4.7250860069
 20
18.5853998071
 30
0.0
 40
0.0727987331
 50
70.3720153888
 51
250.3720153888
  0
LINE
  8
0
  6
CONTINUOUS
 62
         7
  5
36
 10
5.4749863791
 20
18.2406697424
 30
0.0
 11
4.7006320641
 21
18.5168311538
 31
0.0
  0
ARC
  8
0
  6
CONTINUOUS
 62
         7
  5
37
 10
12.8377838785
 20
11.2888388467
 30
0.0
 40
10.1261414083
 50
136.6444845869
 51
151.69003902
  0
LINE
  8
0
  6
CONTINUOUS
 62
         7
  5
38
 10
2.903894095
 20
14.6040315324
 30
0.0
 11
3.9227804329
 21
16.0910730543
 31
0.0
  0
ARC
  8
0
  6
CONTINUOUS
 62
         7
  5
39
 10
12.8377838785
 20
11.2888388467
 30
0.0
 40
11.7511414083
 50
19.6929541157
 51
151.9498888875
  0
LINE
  8
0
  6
CONTINUOUS
 62
         7
  5
3A
 10
2.8313500364
 20
11.1899480769
 30
0.0
 11
2.9551341763
 21
11.2073448033
 31
0.0
  0
LINE
  8
0
  6
CONTINUOUS
 62
         7
  5
3B
 10
2.518210946
 20
13.4180513048
 30
0.0
 11
2.8313500364
 21
11.1899480769
 31
0.0
  0
ARC
  8
0
  6
CONTINUOUS
 62
         7
  5
3C
 10
22.1853369763
 20
7.0770939796
 30
0.0
 40
5.0915929259
 50
69.6871277729
 51
91.3156905637
  0
ARC
  8
0
  6
CONTINUOUS
 62
         7
  5
3D
 10
12.8890239599
 20
7.8921521175
 30
0.0
 40
10.1261414083
 50
24.9731577878
 51
35.5862362465
  0
LINE
  8
0
  6
CONTINUOUS
 62
         7
  5
3E
 10
20.9336425661
 20
15.1393898707
 30
0.0
 11
21.1240130395
 21
13.7848335681
 31
0.0
  0
ARC
  8
0
  6
CONTINUOUS
 62
         7
  5
3F
 10
20.9026589869
 20
15.1350354126
 30
0.0
 40
0.0312880726
 50
8.0000000001
 51
188.0
  0
LINE
  8
0
  6
CONTINUOUS
 62
         7
  5
40
 10
21.0456417839
 20
13.8928458686
 30
0.0
 11
20.8716754077
 21
15.1306809545
 31
0.0
  0
ARC
  8
0
  6
CONTINUOUS
 62
         7
  5
41
 10
12.8890239599
 20
7.8921521175
 30
0.0
 40
10.1261414083
 50
36.3413250449
 51
68.2992536016
  0
LINE
  8
0
  6
CONTINUOUS
 62
         7
  5
42
 10
15.9042747191
 20
18.4548192356
 30
0.0
 11
16.6332544749
 21
17.3006311482
 31
0.0
  0
ARC
  8
0
  6
CONTINUOUS
 62
         7
  5
43
 10
15.8729634253
 20
18.4350431701
 30
0.0
 40
0.0370336318
 50
32.2763135274
 51
212.2763135274
  0
LINE
  8
0
  6
CONTINUOUS
 62
         7
  5
44
 10
16.5169381058
 20
17.3460919719
 30
0.0
 11
15.8416521316
 21
18.4152671045
 31
0.0
  0
ARC
  8
0
  6
CONTINUOUS
 62
         7
  5
45
 10
12.8890239599
 20
7.8921521175
 30
0.0
 40
10.1261414083
 50
69.0058811666
 51
104.4417882712
  0
LINE
  8
0
  6
CONTINUOUS
 62
         7
  5
46
 10
10.3636022634
 20
17.6983228826
 30
0.0
 11
9.5352785032
 21
18.3170241598
 31
0.0
  0
ARC
  8
0
  6
CONTINUOUS
 62
         7
  5
47
 10
9.5065864844
 20
18.2786109841
 30
0.0
 40
0.0479458445
 50
53.2427804467
 51
233.2427804467
  0
LINE
  8
0
  6
CONTINUOUS
 62
         7
  5
48
 10
9.4778944657
 20
18.2401978084
 30
0.0
 11
10.2452071972
 21
17.6670676028
 31
0.0
  0
ARC
  8
0
  6
CONTINUOUS
 62
         7
  5
49
 10
12.8890239599
 20
7.8921521175
 30
0.0
 40
10.1261414083
 50
105.1346461502
 51
135.7414308019
  0
LINE
  8
0
  6
CONTINUOUS
 62
         7
  5
4A
 10
4.800780031
 20
15.2572817313
 30
0.0
 11
5.6367060557
 21
14.9591617281
 31
0.0
  0
ARC
  8
0
  6
CONTINUOUS
 62
         7
  5
4B
 10
4.7763260882
 20
15.1887130779
 30
0.0
 40
0.0727987331
 50
70.3720153888
 51
250.3720153888
  0
LINE
  8
0
  6
CONTINUOUS
 62
         7
  5
4C
 10
5.5262264604
 20
14.8439830132
 30
0.0
 11
4.7518721455
 21
15.1201444246
 31
0.0
  0
ARC
  8
0
  6
CONTINUOUS
 62
         7
  5
4D
 10
12.8890239599
 20
7.8921521175
 30
0.0
 40
10.1261414083
 50
136.6444845869
 51
151.69003902
  0
LINE
  8
0
  6
CONTINUOUS
 62
         7
  5
4E
 10
2.9551341763
 20
11.2073448033
 30
0.0
 11
3.9740205143
 21
12.6943863251
 31
0.0
  0
ARC
  8
0
  6
CONTINUOUS
 62
         7
  5
4F
 10
12.8890239599
 20
7.8921521175
 30
0.0
 40
11.7511414083
 50
19.6929541157
 51
151.9498888875
  0
LINE
  8
0
  6
CONTINUOUS
 62
         7
  5
50
 10
2.7558680911
 20
7.8945928228
 30
0.0
 11
2.879652231
 21
7.9119895492
 31
0.0
  0
LINE
  8
0
  6
CONTINUOUS
 62
         7
  5
51
 10
2.4427290007
 20
10.1226960507
 30
0.0
 11
2.7558680911
 21
7.8945928228
 31
0.0
  0
ARC
  8
0
  6
CONTINUOUS
 62
         7
  5
52
 10
22.109855031
 20
3.7817387255
 30
0.0
 40
5.0915929259
 50
69.6871277729
 51
91.3156905637
  0
ARC
  8
0
  6
CONTINUOUS
 62
         7
  5
53
 10
12.8135420145
 20
4.5967968634
 30
0.0
 40
10.1261414083
 50
24.9731577878
 51
35.5862362465
  0
LINE
  8
0
  6
CONTINUOUS
 62
         7
  5
54
 10
20.8581606208
 20
11.8440346165
 30
0.0
 11
21.0485310942
 21
10.489478314
 31
0.0
  0
ARC
  8
0
  6
CONTINUOUS
 62
         7
  5
55
 10
20.8271770416
 20
11.8396801584
 30
0.0
 40
0.0312880726
 50
8.0000000001
 51
188.0
  0
LINE
  8
0
  6
CONTINUOUS
 62
         7
  5
56
 10
20.9701598385
 20
10.5974906144
 30
0.0
 11
20.7961934623
 21
11.8353257004
 31
0.0
  0
ARC
  8
0
  6
CONTINUOUS
 62
         7
  5
57
 10
12.8135420145
 20
4.5967968634
 30
0.0
 40
10.1261414083
 50
36.3413250449
 51
68.2992536016
  0
LINE
  8
0
  6
CONTINUOUS
 62
         7
  5
58
 10
15.8287927738
 20
15.1594639815
 30
0.0
 11
16.5577725296
 21
14.0052758941
 31
0.0
  0
ARC
  8
0
  6
CONTINUOUS
 62
         7
  5
59
 10
15.79748148
 20
15.139687916
 30
0.0
 40
0.0370336318
 50
32.2763135274
 51
212.2763135274
  0
LINE
  8
0
  6
CONTINUOUS
 62
         7
  5
5A
 10
16.4414561605
 20
14.0507367178
 30
0.0
 11
15.7661701862
 21
15.1199118504
 31
0.0
  0
ARC
  8
0
  6
CONTINUOUS
 62
         7
  5
5B
 10
12.8135420145
 20
4.5967968634
 30
0.0
 40
10.1261414083
 50
69.0058811666
 51
104.4417882712
  0
LINE
  8
0
  6
CONTINUOUS
 62
         7
  5
5C
 10
10.288120318
 20
14.4029676285
 30
0.0
 11
9.4597965578
 21
15.0216689056
 31
0.0
  0
ARC
  8
0
  6
CONTINUOUS
 62
         7
  5
5D
 10
9.4311045391
 20
14.98325573
 30
0.0
 40
0.0479458445
 50
53.2427804467
 51
233.2427804467
  0
LINE
  8
0
  6
CONTINUOUS
 62
         7
  5
5E
 10
9.4024125203
 20
14.9448425543
 30
0.0
 11
10.1697252518
 21
14.3717123487
 31
0.0
  0
ARC
  8
0
  6
CONTINUOUS
 62
         7
  5
5F
 10
12.8135420145
 20
4.5967968634
 30
0.0
 40
10.1261414083
 50
105.1346461502
 51
135.7414308019
  0
LINE
  8
0
  6
CONTINUOUS
 62
         7
  5
60
 10
4.7252980856
 20
11.9619264772
 30
0.0
 11
5.5612241103
 21
11.663806474
 31
0.0
  0
ARC
  8
0
  6
CONTINUOUS
 62
         7
  5
61
 10
4.7008441429
 20
11.8933578238
 30
0.0
 40
0.0727987331
 50
70.3720153888
 51
250.3720153888
  0
LINE
  8
0
  6
CONTINUOUS
 62
         7
  5
62
 10
5.4507445151
 20
11.5486277591
 30
0.0
 11
4.6763902001
 21
11.8247891705
 31
0.0
  0
ARC
  8
0
  6
CONTINUOUS
 62
         7
  5
63
 10
12.8135420145
 20
4.5967968634
 30
0.0
 40
10.1261414083
 50
136.6444845869
 51
151.69003902
  0
LINE
  8
0
  6
CONTINUOUS
 62
         7
  5
64
 10
2.879652231
 20
7.9119895492
 30
0.0
 11
3.8985385689
 21
9.399031071
 31
0.0
  0
ARC
  8
0
  6
CONTINUOUS
 62
         7
  5
65
 10
12.8135420145
 20
4.5967968634
 30
0.0
 40
11.7511414083
 50
19.6929541157
 51
151.9498888875
  0
LINE
  8
0
  6
CONTINUOUS
 62
         7
  5
66
 10
2.7103227843
 20
4.6399530375
 30
0.0
 11
2.8341069242
 21
4.6573497638
 31
0.0
  0
LINE
  8
0
  6
CONTINUOUS
 62
         7
  5
67
 10
2.3971836939
 20
6.8680562654
 30
0.0
 11
2.7103227843
 21
4.6399530375
 31
0.0
  0
ARC
  8
0
  6
CONTINUOUS
 62
         7
  5
68
 10
22.0643097242
 20
0.5270989401
 30
0.0
 40
5.0915929259
 50
69.6871277729
 51
91.3156905637
  0
ARC
  8
0
  6
CONTINUOUS
 62
         7
  5
69
 10
12.7679967078
 20
1.342157078
 30
0.0
 40
10.1261414083
 50
24.9731577878
 51
35.5862362465
  0
LINE
  8
0
  6
CONTINUOUS
 62
         7
  5
6A
 10
20.812615314
 20
8.5893948312
 30
0.0
 11
21.0029857874
 21
7.2348385286
 31
0.0
  0
ARC
  8
0
  6
CONTINUOUS
 62
         7
  5
6B
 10
20.7816317348
 20
8.5850403731
 30
0.0
 40
0.0312880726
 50
8.0
 51
188.0
  0
LINE
  8
0
  6
CONTINUOUS
 62
         7
  5
6C
 10
20.9246145317
 20
7.3428508291
 30
0.0
 11
20.7506481555
 21
8.580685915
 31
0.0
  0
ARC
  8
0
  6
CONTINUOUS
 62
         7
  5
6D
 10
12.7679967078
 20
1.342157078
 30
0.0
 40
10.1261414083
 50
36.3413250449
 51
68.2992536016
  0
LINE
  8
0
  6
CONTINUOUS
 62
         7
  5
6E
 10
15.783247467
 20
11.9048241962
 30
0.0
 11
16.5122272228
 21
10.7506361087
 31
0.0
  0
ARC
  8
0
  6
CONTINUOUS
 62
         7
  5
6F
 10
15.7519361732
 20
11.8850481306
 30
0.0
 40
0.0370336318
 50
32.2763135274
 51
212.2763135274
  0
LINE
  8
0
  6
CONTINUOUS
 62
         7
  5
70
 10
16.3959108537
 20
10.7960969324
 30
0.0
 11
15.7206248795
 21
11.865272065
 31
0.0
  0
ARC
  8
0
  6
CONTINUOUS
 62
         7
  5
71
 10
12.7679967078
 20
1.342157078
 30
0.0
 40
10.1261414083
 50
69.0058811666
 51
104.4417882712
  0
LINE
  8
0
  6
CONTINUOUS
 62
         7
  5
72
 10
10.2425750112
 20
11.1483278432
 30
0.0
 11
9.414251251
 21
11.7670291203
 31
0.0
  0
ARC
  8
0
  6
CONTINUOUS
 62
         7
  5
73
 10
9.3855592323
 20
11.7286159446
 30
0.0
 40
0.0479458445
 50
53.2427804467
 51
233.2427804467
  0
LINE
  8
0
  6
CONTINUOUS
 62
         7
  5
74
 10
9.3568672135
 20
11.6902027689
 30
0.0
 11
10.124179945
 21
11.1170725634
 31
0.0
  0
ARC
  8
0
  6
CONTINUOUS
 62
         7
  5
75
 10
12.7679967078
 20
1.342157078
 30
0.0
 40
10.1261414083
 50
105.1346461502
 51
135.7414308019
  0
LINE
  8
0
  6
CONTINUOUS
 62
         7
  5
76
 10
4.6797527789
 20
8.7072866918
 30
0.0
 11
5.5156788036
 21
8.4091666887
 31
0.0
  0
ARC
  8
0
  6
CONTINUOUS
 62
         7
  5
77
 10
4.6552988361
 20
8.6387180385
 30
0.0
 40
0.0727987331
 50
70.3720153888
 51
250.3720153888
  0
LINE
  8
0
  6
CONTINUOUS
 62
         7
  5
78
 10
5.4051992083
 20
8.2939879737
 30
0.0
 11
4.6308448933
 21
8.5701493851
 31
0.0
  0
ARC
  8
0
  6
CONTINUOUS
 62
         7
  5
79
 10
12.7679967078
 20
1.342157078
 30
0.0
 40
10.1261414083
 50
136.6444845869
 51
151.69003902
  0
LINE
  8
0
  6
CONTINUOUS
 62
         7
  5
7A
 10
2.8341069242
 20
4.6573497638
 30
0.0
 11
3.8529932621
 21
6.1443912857
 31
0.0
  0
ARC
  8
0
  6
CONTINUOUS
 62
         7
  5
7B
 10
12.7679967078
 20
1.342157078
 30
0.0
 40
11.7511414083
 50
19.6929541157
 51
151.9498888875
  0
LINE
  8
0
  6
CONTINUOUS
 62
         7
  5
7C
 10
2.6812273439
 20
0.9491520819
 30
0.0
 11
2.8050114839
 21
0.9665488083
 31
0.0
  0
LINE
  8
0
  6
CONTINUOUS
 62
         7
  5
7D
 10
2.3680882535
 20
3.1772553098
 30
0.0
 11
2.6812273439
 21
0.9491520819
 31
0.0
  0
ARC
  8
0
  6
CONTINUOUS
 62
         7
  5
7E
 10
22.0352142839
 20
-3.1637020154
 30
0.0
 40
5.0915929259
 50
69.6871277729
 51
91.3156905637
  0
ARC
  8
0
  6
CONTINUOUS
 62
         7
  5
7F
 10
12.7389012674
 20
-2.3486438775
 30
0.0
 40
10.1261414083
 50
24.9731577878
 51
35.5862362465
  0
LINE
  8
0
  6
CONTINUOUS
 62
         7
  5
80
 10
20.7835198737
 20
4.8985938757
 30
0.0
 11
20.9738903471
 21
3.5440375731
 31
0.0
  0
ARC
  8
0
  6
CONTINUOUS
 62
         7
  5
81
 10
20.7525362944
 20
4.8942394176
 30
0.0
 40
0.0312880726
 50
8.0
 51
188.0
  0
LINE
  8
0
  6
CONTINUOUS
 62
         7
  5
82
 10
20.8955190914
 20
3.6520498736
 30
0.0
 11
20.7215527152
 21
4.8898849595
 31
0.0
  0
ARC
  8
0
  6
CONTINUOUS
 62
         7
  5
83
 10
12.7389012674
 20
-2.3486438775
 30
0.0
 40
10.1261414083
 50
36.3413250449
 51
68.2992536016
  0
LINE
  8
0
  6
CONTINUOUS
 62
         7
  5
84
 10
15.7541520267
 20
8.2140232406
 30
0.0
 11
16.4831317824
 21
7.0598351532
 31
0.0
  0
ARC
  8
0
  6
CONTINUOUS
 62
         7
  5
85
 10
15.7228407329
 20
8.1942471751
 30
0.0
 40
0.0370336318
 50
32.2763135274
 51
212.2763135274
  0
LINE
  8
0
  6
CONTINUOUS
 62
         7
  5
86
 10
16.3668154133
 20
7.1052959769
 30
0.0
 11
15.6915294391
 21
8.1744711095
 31
0.0
  0
ARC
  8
0
  6
CONTINUOUS
 62
         7
  5
87
 10
12.7389012674
 20
-2.3486438775
 30
0.0
 40
10.1261414083
 50
69.0058811666
 51
104.4417882712
  0
LINE
  8
0
  6
CONTINUOUS
 62
         7
  5
88
 10
10.2134795709
 20
7.4575268876
 30
0.0
 11
9.3851558107
 21
8.0762281648
 31
0.0
  0
ARC
  8
0
  6
CONTINUOUS
 62
         7
  5
89
 10
9.3564637919
 20
8.0378149891
 30
0.0
 40
0.0479458445
 50
53.2427804467
 51
233.2427804467
  0
LINE
  8
0
  6
CONTINUOUS
 62
         7
  5
8A
 10
9.3277717732
 20
7.9994018134
 30
0.0
 11
10.0950845047
 21
7.4262716078
 31
0.0
  0
ARC
  8
0
  6
CONTINUOUS
 62
         7
  5
8B
 10
12.7389012674
 20
-2.3486438775
 30
0.0
 40
10.1261414083
 50
105.1346461502
 51
135.7414308019
  0
LINE
  8
0
  6
CONTINUOUS
 62
         7
  5
8C
 10
4.6506573385
 20
5.0164857363
 30
0.0
 11
5.4865833632
 21
4.7183657331
 31
0.0
  0
ARC
  8
0
  6
CONTINUOUS
 62
         7
  5
8D
 10
4.6262033958
 20
4.947917083
 30
0.0
 40
0.0727987331
 50
70.3720153888
 51
250.3720153888
  0
LINE
  8
0
  6
CONTINUOUS
 62
         7
  5
8E
 10
5.3761037679
 20
4.6031870182
 30
0.0
 11
4.601749453
 21
4.8793484296
 31
0.0
  0
ARC
  8
0
  6
CONTINUOUS
 62
         7
  5
8F
 10
12.7389012674
 20
-2.3486438775
 30
0.0
 40
10.1261414083
 50
136.6444845869
 51
151.69003902
  0
LINE
  8
0
  6
CONTINUOUS
 62
         7
  5
90
 10
2.8050114839
 20
0.9665488083
 30
0.0
 11
3.8238978218
 21
2.4535903301
 31
0.0
  0
ARC
  8
0
  6
CONTINUOUS
 62
         7
  5
91
 10
12.7389012674
 20
-2.3486438775
 30
0.0
 40
11.7511414083
 50
19.6929541157
 51
151.9498888875
  0
LINE
  8
0
  6
CONTINUOUS
 62
         7
  5
92
 10
2.7282432787
 20
24.5099628622
 30
0.0
 11
2.8520274186
 21
24.5273595886
 31
0.0
  0
LINE
  8
0
  6
CONTINUOUS
 62
         7
  5
93
 10
2.4151041883
 20
26.7380660901
 30
0.0
 11
2.7282432787
 21
24.5099628622
 31
0.0
  0
ARC
  8
0
  6
CONTINUOUS
 62
         7
  5
94
 10
22.0822302186
 20
20.3971087649
 30
0.0
 40
5.0915929259
 50
69.6871277729
 51
91.3156905637
  0
ARC
  8
0
  6
CONTINUOUS
 62
         7
  5
95
 10
12.7859172022
 20
21.2121669028
 30
0.0
 40
10.1261414083
 50
24.9731577878
 51
35.5862362465
  0
LINE
  8
0
  6
CONTINUOUS
 62
         7
  5
96
 10
20.8305358084
 20
28.4594046559
 30
0.0
 11
21.0209062818
 21
27.1048483534
 31
0.0
  0
ARC
  8
0
  6
CONTINUOUS
 62
         7
  5
97
 10
20.7995522292
 20
28.4550501978
 30
0.0
 40
0.0312880726
 50
8.0000000001
 51
188.0
  0
LINE
  8
0
  6
CONTINUOUS
 62
         7
  5
98
 10
20.9425350261
 20
27.2128606538
 30
0.0
 11
20.7685686499
 21
28.4506957398
 31
0.0
  0
ARC
  8
0
  6
CONTINUOUS
 62
         7
  5
99
 10
12.7859172022
 20
21.2121669028
 30
0.0
 40
10.1261414083
 50
36.3413250449
 51
68.2992536016
  0
LINE
  8
0
  6
CONTINUOUS
 62
         7
  5
9A
 10
15.8011679614
 20
31.7748340209
 30
0.0
 11
16.5301477172
 21
30.6206459335
 31
0.0
  0
ARC
  8
0
  6
CONTINUOUS
 62
         7
  5
9B
 10
15.7698566676
 20
31.7550579554
 30
0.0
 40
0.0370336318
 50
32.2763135274
 51
212.2763135274
  0
LINE
  8
0
  6
CONTINUOUS
 62
         7
  5
9C
 10
16.4138313481
 20
30.6661067572
 30
0.0
 11
15.7385453739
 21
31.7352818898
 31
0.0
  0
ARC
  8
0
  6
CONTINUOUS
 62
         7
  5
9D
 10
12.7859172022
 20
21.2121669028
 30
0.0
 40
10.1261414083
 50
69.0058811666
 51
104.4417882712
  0
LINE
  8
0
  6
CONTINUOUS
 62
         7
  5
9E
 10
10.2604955057
 20
31.0183376679
 30
0.0
 11
9.4321717455
 21
31.637038945
 31
0.0
  0
ARC
  8
0
  6
CONTINUOUS
 62
         7
  5
9F
 10
9.4034797267
 20
31.5986257694
 30
0.0
 40
0.0479458445
 50
53.2427804467
 51
233.2427804467
  0
LINE
  8
0
  6
CONTINUOUS
 62
         7
  5
A0
 10
9.3747877079
 20
31.5602125937
 30
0.0
 11
10.1421004394
 21
30.9870823881
 31
0.0
  0
ARC
  8
0
  6
CONTINUOUS
 62
         7
  5
A1
 10
12.7859172022
 20
21.2121669028
 30
0.0
 40
10.1261414083
 50
105.1346461502
 51
135.7414308019
  0
LINE
  8
0
  6
CONTINUOUS
 62
         7
  5
A2
 10
4.6976732733
 20
28.5772965166
 30
0.0
 11
5.533599298
 21
28.2791765134
 31
0.0
  0
ARC
  8
0
  6
CONTINUOUS
 62
         7
  5
A3
 10
4.6732193305
 20
28.5087278632
 30
0.0
 40
0.0727987331
 50
70.3720153888
 51
250.3720153888
  0
LINE
  8
0
  6
CONTINUOUS
 62
         7
  5
A4
 10
5.4231197027
 20
28.1639977985
 30
0.0
 11
4.6487653878
 21
28.4401592099
 31
0.0
  0
ARC
  8
0
  6
CONTINUOUS
 62
         7
  5
A5
 10
12.7859172022
 20
21.2121669028
 30
0.0
 40
10.1261414083
 50
136.6444845869
 51
151.69003902
  0
LINE
  8
0
  6
CONTINUOUS
 62
         7
  5
A6
 10
2.8520274186
 20
24.5273595886
 30
0.0
 11
3.8709137566
 21
26.0144011104
 31
0.0
  0
ARC
  8
0
  6
CONTINUOUS
 62
         7
  5
A7
 10
12.7859172022
 20
21.2121669028
 30
0.0
 40
11.7511414083
 50
19.6929541157
 51
151.9498888875
  0
LINE
  8
0
  6
CONTINUOUS
 62
         7
  5
A8
 10
2.77948336
 20
21.113276133
 30
0.0
 11
2.9032675
 21
21.1306728594
 31
0.0
  0
LINE
  8
0
  6
CONTINUOUS
 62
         7
  5
A9
 10
2.4663442696
 20
23.3413793609
 30
0.0
 11
2.77948336
 21
21.113276133
 31
0.0
  0
ARC
  8
0
  6
CONTINUOUS
 62
         7
  5
AA
 10
22.1334703
 20
17.0004220357
 30
0.0
 40
5.0915929259
 50
69.6871277729
 51
91.3156905637
  0
ARC
  8
0
  6
CONTINUOUS
 62
         7
  5
AB
 10
12.8371572835
 20
17.8154801736
 30
0.0
 40
10.1261414083
 50
24.9731577878
 51
35.5862362465
  0
LINE
  8
0
  6
CONTINUOUS
 62
         7
  5
AC
 10
20.8817758898
 20
25.0627179268
 30
0.0
 11
21.0721463632
 21
23.7081616242
 31
0.0
  0
ARC
  8
0
  6
CONTINUOUS
 62
         7
  5
AD
 10
20.8507923105
 20
25.0583634687
 30
0.0
 40
0.0312880726
 50
8.0000000001
 51
188.0
  0
LINE
  8
0
  6
CONTINUOUS
 62
         7
  5
AE
 10
20.9937751075
 20
23.8161739247
 30
0.0
 11
20.8198087313
 21
25.0540090106
 31
0.0
  0
ARC
  8
0
  6
CONTINUOUS
 62
         7
  5
AF
 10
12.8371572835
 20
17.8154801736
 30
0.0
 40
10.1261414083
 50
36.3413250449
 51
68.2992536016
  0
LINE
  8
0
  6
CONTINUOUS
 62
         7
  5
B0
 10
15.8524080428
 20
28.3781472918
 30
0.0
 11
16.5813877985
 21
27.2239592043
 31
0.0
  0
ARC
  8
0
  6
CONTINUOUS
 62
         7
  5
B1
 10
15.821096749
 20
28.3583712262
 30
0.0
 40
0.0370336318
 50
32.2763135274
 51
212.2763135274
  0
LINE
  8
0
  6
CONTINUOUS
 62
         7
  5
B2
 10
16.4650714294
 20
27.269420028
 30
0.0
 11
15.7897854552
 21
28.3385951606
 31
0.0
  0
ARC
  8
0
  6
CONTINUOUS
 62
         7
  5
B3
 10
12.8371572835
 20
17.8154801736
 30
0.0
 40
10.1261414083
 50
69.0058811666
 51
104.4417882712
  0
LINE
  8
0
  6
CONTINUOUS
 62
         7
  5
B4
 10
10.311735587
 20
27.6216509388
 30
0.0
 11
9.4834118268
 21
28.2403522159
 31
0.0
  0
ARC
  8
0
  6
CONTINUOUS
 62
         7
  5
B5
 10
9.454719808
 20
28.2019390402
 30
0.0
 40
0.0479458445
 50
53.2427804467
 51
233.2427804467
  0
LINE
  8
0
  6
CONTINUOUS
 62
         7
  5
B6
 10
9.4260277893
 20
28.1635258645
 30
0.0
 11
10.1933405208
 21
27.5903956589
 31
0.0
  0
ARC
  8
0
  6
CONTINUOUS
 62
         7
  5
B7
 10
12.8371572835
 20
17.8154801736
 30
0.0
 40
10.1261414083
 50
105.1346461502
 51
135.7414308019
  0
LINE
  8
0
  6
CONTINUOUS
 62
         7
  5
B8
 10
4.7489133546
 20
25.1806097874
 30
0.0
 11
5.5848393793
 21
24.8824897842
 31
0.0
  0
ARC
  8
0
  6
CONTINUOUS
 62
         7
  5
B9
 10
4.7244594119
 20
25.1120411341
 30
0.0
 40
0.0727987331
 50
70.3720153888
 51
250.3720153888
  0
LINE
  8
0
  6
CONTINUOUS
 62
         7
  5
BA
 10
5.474359784
 20
24.7673110693
 30
0.0
 11
4.7000054691
 21
25.0434724807
 31
0.0
  0
ARC
  8
0
  6
CONTINUOUS
 62
         7
  5
BB
 10
12.8371572835
 20
17.8154801736
 30
0.0
 40
10.1261414083
 50
136.6444845869
 51
151.69003902
  0
LINE
  8
0
  6
CONTINUOUS
 62
         7
  5
BC
 10
2.9032675
 20
21.1306728594
 30
0.0
 11
3.9221538379
 21
22.6177143812
 31
0.0
  0
ARC
  8
0
  6
CONTINUOUS
 62
         7
  5
BD
 10
12.8371572835
 20
17.8154801736
 30
0.0
 40
11.7511414083
 50
19.6929541157
 51
151.9498888875
  0
LINE
  8
0
  6
CONTINUOUS
 62
         7
  5
BE
 10
2.7696641219
 20
27.7986523706
 30
0.0
 11
2.8934482618
 21
27.8160490969
 31
0.0
  0
LINE
  8
0
  6
CONTINUOUS
 62
         7
  5
BF
 10
2.4565250315
 20
30.0267555985
 30
0.0
 11
2.7696641219
 21
27.7986523706
 31
0.0
  0
ARC
  8
0
  6
CONTINUOUS
 62
         7
  5
C0
 10
22.1236510618
 20
23.6857982733
 30
0.0
 40
5.0915929259
 50
69.6871277729
 51
91.3156905637
  0
ARC
  8
0
  6
CONTINUOUS
 62
         7
  5
C1
 10
12.8273380454
 20
24.5008564112
 30
0.0
 40
10.1261414083
 50
24.9731577878
 51
35.5862362465
  0
LINE
  8
0
  6
CONTINUOUS
 62
         7
  5
C2
 10
20.8719566516
 20
31.7480941643
 30
0.0
 11
21.062327125
 21
30.3935378618
 31
0.0
  0
ARC
  8
0
  6
CONTINUOUS
 62
         7
  5
C3
 10
20.8409730724
 20
31.7437397062
 30
0.0
 40
0.0312880726
 50
8.0
 51
188.0
  0
LINE
  8
0
  6
CONTINUOUS
 62
         7
  5
C4
 10
20.9839558693
 20
30.5015501622
 30
0.0
 11
20.8099894931
 21
31.7393852481
 31
0.0
  0
ARC
  8
0
  6
CONTINUOUS
 62
         7
  5
C5
 10
12.8273380454
 20
24.5008564112
 30
0.0
 40
10.1261414083
 50
36.3413250449
 51
68.2992536016
  0
LINE
  8
0
  6
CONTINUOUS
 62
         7
  5
C6
 10
15.8425888046
 20
35.0635235293
 30
0.0
 11
16.5715685604
 21
33.9093354419
 31
0.0
  0
ARC
  8
0
  6
CONTINUOUS
 62
         7
  5
C7
 10
15.8112775108
 20
35.0437474638
 30
0.0
 40
0.0370336318
 50
32.2763135274
 51
212.2763135274
  0
LINE
  8
0
  6
CONTINUOUS
 62
         7
  5
C8
 10
16.4552521913
 20
33.9547962655
 30
0.0
 11
15.7799662171
 21
35.0239713982
 31
0.0
  0
ARC
  8
0
  6
CONTINUOUS
 62
         7
  5
C9
 10
12.8273380454
 20
24.5008564112
 30
0.0
 40
10.1261414083
 50
69.0058811666
 51
104.4417882712
  0
LINE
  8
0
  6
CONTINUOUS
 62
         7
  5
CA
 10
10.3019163489
 20
34.3070271763
 30
0.0
 11
9.4735925887
 21
34.9257284534
 31
0.0
  0
ARC
  8
0
  6
CONTINUOUS
 62
         7
  5
CB
 10
9.4449005699
 20
34.8873152777
 30
0.0
 40
0.0479458445
 50
53.2427804467
 51
233.2427804467
  0
LINE
  8
0
  6
CONTINUOUS
 62
         7
  5
CC
 10
9.4162085511
 20
34.848902102
 30
0.0
 11
10.1835212826
 21
34.2757718965
 31
0.0
  0
ARC
  8
0
  6
CONTINUOUS
 62
         7
  5
CD
 10
12.8273380454
 20
24.5008564112
 30
0.0
 40
10.1261414083
 50
105.1346461502
 51
135.7414308019
  0
LINE
  8
0
  6
CONTINUOUS
 62
         7
  5
CE
 10
4.7390941165
 20
31.865986025
 30
0.0
 11
5.5750201412
 21
31.5678660218
 31
0.0
  0
ARC
  8
0
  6
CONTINUOUS
 62
         7
  5
CF
 10
4.7146401737
 20
31.7974173716
 30
0.0
 40
0.0727987331
 50
70.3720153888
 51
250.3720153888
  0
LINE
  8
0
  6
CONTINUOUS
 62
         7
  5
D0
 10
5.4645405459
 20
31.4526873068
 30
0.0
 11
4.690186231
 21
31.7288487183
 31
0.0
  0
ARC
  8
0
  6
CONTINUOUS
 62
         7
  5
D1
 10
12.8273380454
 20
24.5008564112
 30
0.0
 40
10.1261414083
 50
136.6444845869
 51
151.69003902
  0
LINE
  8
0
  6
CONTINUOUS
 62
         7
  5
D2
 10
2.8934482618
 20
27.8160490969
 30
0.0
 11
3.9123345998
 21
29.3030906188
 31
0.0
  0
ARC
  8
0
  6
CONTINUOUS
 62
         7
  5
D3
 10
12.8273380454
 20
24.5008564112
 30
0.0
 40
11.7511414083
 50
19.6929541157
 51
151.9498888875
  0
LINE
  8
0
  6
CONTINUOUS
 62
         7
  5
D4
 10
2.7897815223
 20
17.9120791598
 30
0.0
 11
2.9135656622
 21
17.9294758862
 31
0.0
  0
LINE
  8
0
  6
CONTINUOUS
 62
         7
  5
D5
 10
2.4766424319
 20
20.1401823878
 30
0.0
 11
2.7897815223
 21
17.9120791598
 31
0.0
  0
ARC
  8
0
  6
CONTINUOUS
 62
         7
  5
D6
 10
22.1437684622
 20
13.7992250625
 30
0.0
 40
5.0915929259
 50
69.6871277729
 51
91.3156905637
  0
ARC
  8
0
  6
CONTINUOUS
 62
         7
  5
D7
 10
12.8474554458
 20
14.6142832004
 30
0.0
 40
10.1261414083
 50
24.9731577878
 51
35.5862362465
  0
LINE
  8
0
  6
CONTINUOUS
 62
         7
  5
D8
 10
20.892074052
 20
21.8615209536
 30
0.0
 11
21.0824445254
 21
20.506964651
 31
0.0
  0
ARC
  8
0
  6
CONTINUOUS
 62
         7
  5
D9
 10
20.8610904728
 20
21.8571664955
 30
0.0
 40
0.0312880726
 50
8.0000000001
 51
188.0
  0
LINE
  8
0
  6
CONTINUOUS
 62
         7
  5
DA
 10
21.0040732697
 20
20.6149769515
 30
0.0
 11
20.8301068935
 21
21.8528120374
 31
0.0
  0
ARC
  8
0
  6
CONTINUOUS
 62
         7
  5
DB
 10
12.8474554458
 20
14.6142832004
 30
0.0
 40
10.1261414083
 50
36.3413250449
 51
68.2992536016
  0
LINE
  8
0
  6
CONTINUOUS
 62
         7
  5
DC
 10
15.862706205
 20
25.1769503186
 30
0.0
 11
16.5916859608
 21
24.0227622311
 31
0.0
  0
ARC
  8
0
  6
CONTINUOUS
 62
         7
  5
DD
 10
15.8313949112
 20
25.157174253
 30
0.0
 40
0.0370336318
 50
32.2763135274
 51
212.2763135274
  0
LINE
  8
0
  6
CONTINUOUS
 62
         7
  5
DE
 10
16.4753695917
 20
24.0682230548
 30
0.0
 11
15.8000836175
 21
25.1373981874
 31
0.0
  0
ARC
  8
0
  6
CONTINUOUS
 62
         7
  5
DF
 10
12.8474554458
 20
14.6142832004
 30
0.0
 40
10.1261414083
 50
69.0058811666
 51
104.4417882712
  0
LINE
  8
0
  6
CONTINUOUS
 62
         7
  5
E0
 10
10.3220337492
 20
24.4204539656
 30
0.0
 11
9.4937099891
 21
25.0391552427
 31
0.0
  0
ARC
  8
0
  6
CONTINUOUS
 62
         7
  5
E1
 10
9.4650179703
 20
25.000742067
 30
0.0
 40
0.0479458445
 50
53.2427804467
 51
233.2427804467
  0
LINE
  8
0
  6
CONTINUOUS
 62
         7
  5
E2
 10
9.4363259515
 20
24.9623288913
 30
0.0
 11
10.203638683
 21
24.3891986858
 31
0.0
  0
ARC
  8
0
  6
CONTINUOUS
 62
         7
  5
E3
 10
12.8474554458
 20
14.6142832004
 30
0.0
 40
10.1261414083
 50
105.1346461502
 51
135.7414308019
  0
LINE
  8
0
  6
CONTINUOUS
 62
         7
  5
E4
 10
4.7592115169
 20
21.9794128142
 30
0.0
 11
5.5951375416
 21
21.6812928111
 31
0.0
  0
ARC
  8
0
  6
CONTINUOUS
 62
         7
  5
E5
 10
4.7347575741
 20
21.9108441609
 30
0.0
 40
0.0727987331
 50
70.3720153888
 51
250.3720153888
  0
LINE
  8
0
  6
CONTINUOUS
 62
         7
  5
E6
 10
5.4846579463
 20
21.5661140961
 30
0.0
 11
4.7103036314
 21
21.8422755075
 31
0.0
  0
ARC
  8
0
  6
CONTINUOUS
 62
         7
  5
E7
 10
12.8474554458
 20
14.6142832004
 30
0.0
 40
10.1261414083
 50
136.6444845869
 51
151.69003902
  0
LINE
  8
0
  6
CONTINUOUS
 62
         7
  5
E8
 10
2.9135656622
 20
17.9294758862
 30
0.0
 11
3.9324520002
 21
19.4165174081
 31
0.0
  0
ARC
  8
0
  6
CONTINUOUS
 62
         7
  5
E9
 10
12.8474554458
 20
14.6142832004
 30
0.0
 40
11.7511414083
 50
19.6929541157
 51
151.9498888875
  0
LINE
  8
0
  6
CONTINUOUS
 62
         7
  5
EA
 10
2.7340399359
 20
31.0730776355
 30
0.0
 11
2.8578240758
 21
31.0904743619
 31
0.0
  0
LINE
  8
0
  6
CONTINUOUS
 62
         7
  5
EB
 10
2.4209008455
 20
33.3011808634
 30
0.0
 11
2.7340399359
 21
31.0730776355
 31
0.0
  0
ARC
  8
0
  6
CONTINUOUS
 62
         7
  5
EC
 10
22.0880268758
 20
26.9602235382
 30
0.0
 40
5.0915929259
 50
69.6871277729
 51
91.3156905637
  0
ARC
  8
0
  6
CONTINUOUS
 62
         7
  5
ED
 10
12.7917138593
 20
27.7752816761
 30
0.0
 40
10.1261414083
 50
24.9731577878
 51
35.5862362465
  0
LINE
  8
0
  6
CONTINUOUS
 62
         7
  5
EE
 10
20.8363324656
 20
35.0225194292
 30
0.0
 11
21.026702939
 21
33.6679631267
 31
0.0
  0
ARC
  8
0
  6
CONTINUOUS
 62
         7
  5
EF
 10
20.8053488863
 20
35.0181649712
 30
0.0
 40
0.0312880726
 50
8.0000000001
 51
188.0
  0
LINE
  8
0
  6
CONTINUOUS
 62
         7
  5
F0
 10
20.9483316833
 20
33.7759754271
 30
0.0
 11
20.7743653071
 21
35.0138105131
 31
0.0
  0
ARC
  8
0
  6
CONTINUOUS
 62
         7
  5
F1
 10
12.7917138593
 20
27.7752816761
 30
0.0
 40
10.1261414083
 50
36.3413250449
 51
68.2992536016
  0
LINE
  8
0
  6
CONTINUOUS
 62
         7
  5
F2
 10
15.8069646186
 20
38.3379487942
 30
0.0
 11
16.5359443743
 21
37.1837607068
 31
0.0
  0
ARC
  8
0
  6
CONTINUOUS
 62
         7
  5
F3
 10
15.7756533248
 20
38.3181727287
 30
0.0
 40
0.0370336318
 50
32.2763135274
 51
212.2763135274
  0
LINE
  8
0
  6
CONTINUOUS
 62
         7
  5
F4
 10
16.4196280053
 20
37.2292215305
 30
0.0
 11
15.744342031
 21
38.2983966631
 31
0.0
  0
ARC
  8
0
  6
CONTINUOUS
 62
         7
  5
F5
 10
12.7917138593
 20
27.7752816761
 30
0.0
 40
10.1261414083
 50
69.0058811666
 51
104.4417882712
  0
LINE
  8
0
  6
CONTINUOUS
 62
         7
  5
F6
 10
10.2662921628
 20
37.5814524412
 30
0.0
 11
9.4379684026
 21
38.2001537184
 31
0.0
  0
ARC
  8
0
  6
CONTINUOUS
 62
         7
  5
F7
 10
9.4092763839
 20
38.1617405427
 30
0.0
 40
0.0479458445
 50
53.2427804467
 51
233.2427804467
  0
LINE
  8
0
  6
CONTINUOUS
 62
         7
  5
F8
 10
9.3805843651
 20
38.123327367
 30
0.0
 11
10.1478970966
 21
37.5501971614
 31
0.0
  0
ARC
  8
0
  6
CONTINUOUS
 62
         7
  5
F9
 10
12.7917138593
 20
27.7752816761
 30
0.0
 40
10.1261414083
 50
105.1346461502
 51
135.7414308019
  0
LINE
  8
0
  6
CONTINUOUS
 62
         7
  5
FA
 10
4.7034699304
 20
35.1404112899
 30
0.0
 11
5.5393959551
 21
34.8422912867
 31
0.0
  0
ARC
  8
0
  6
CONTINUOUS
 62
         7
  5
FB
 10
4.6790159877
 20
35.0718426365
 30
0.0
 40
0.0727987331
 50
70.3720153888
 51
250.3720153888
  0
LINE
  8
0
  6
CONTINUOUS
 62
         7
  5
FC
 10
5.4289163599
 20
34.7271125718
 30
0.0
 11
4.6545620449
 21
35.0032739832
 31
0.0
  0
ARC
  8
0
  6
CONTINUOUS
 62
         7
  5
FD
 10
12.7917138593
 20
27.7752816761
 30
0.0
 40
10.1261414083
 50
136.6444845869
 51
151.69003902
  0
LINE
  8
0
  6
CONTINUOUS
 62
         7
  5
FE
 10
2.8578240758
 20
31.0904743619
 30
0.0
 11
3.8767104137
 21
32.5775158837
 31
0.0
  0
ARC
  8
0
  6
CONTINUOUS
 62
         7
  5
FF
 10
12.7917138593
 20
27.7752816761
 30
0.0
 40
11.7511414083
 50
19.6929541157
 51
151.9498888875
  0
LINE
  8
0
  6
CONTINUOUS
 62
         7
  5
100
 10
2.7754607791
 20
34.3617671439
 30
0.0
 11
2.899244919
 21
34.3791638702
 31
0.0
  0
LINE
  8
0
  6
CONTINUOUS
 62
         7
  5
101
 10
2.4623216887
 20
36.5898703718
 30
0.0
 11
2.7754607791
 21
34.3617671439
 31
0.0
  0
ARC
  8
0
  6
CONTINUOUS
 62
         7
  5
102
 10
22.129447719
 20
30.2489130466
 30
0.0
 40
5.0915929259
 50
69.6871277729
 51
91.3156905637
  0
ARC
  8
0
  6
CONTINUOUS
 62
         7
  5
103
 10
12.8331347025
 20
31.0639711845
 30
0.0
 40
10.1261414083
 50
24.9731577878
 51
35.5862362465
  0
LINE
  8
0
  6
CONTINUOUS
 62
         7
  5
104
 10
20.8777533088
 20
38.3112089376
 30
0.0
 11
21.0681237822
 21
36.9566526351
 31
0.0
  0
ARC
  8
0
  6
CONTINUOUS
 62
         7
  5
105
 10
20.8467697295
 20
38.3068544795
 30
0.0
 40
0.0312880726
 50
8.0
 51
188.0
  0
LINE
  8
0
  6
CONTINUOUS
 62
         7
  5
106
 10
20.9897525265
 20
37.0646649355
 30
0.0
 11
20.8157861503
 21
38.3025000215
 31
0.0
  0
ARC
  8
0
  6
CONTINUOUS
 62
         7
  5
107
 10
12.8331347025
 20
31.0639711845
 30
0.0
 40
10.1261414083
 50
36.3413250449
 51
68.2992536016
  0
LINE
  8
0
  6
CONTINUOUS
 62
         7
  5
108
 10
15.8483854618
 20
41.6266383026
 30
0.0
 11
16.5773652175
 21
40.4724502152
 31
0.0
  0
ARC
  8
0
  6
CONTINUOUS
 62
         7
  5
109
 10
15.817074168
 20
41.6068622371
 30
0.0
 40
0.0370336318
 50
32.2763135274
 51
212.2763135274
  0
LINE
  8
0
  6
CONTINUOUS
 62
         7
  5
10A
 10
16.4610488485
 20
40.5179110388
 30
0.0
 11
15.7857628742
 21
41.5870861715
 31
0.0
  0
ARC
  8
0
  6
CONTINUOUS
 62
         7
  5
10B
 10
12.8331347025
 20
31.0639711845
 30
0.0
 40
10.1261414083
 50
69.0058811666
 51
104.4417882712
  0
LINE
  8
0
  6
CONTINUOUS
 62
         7
  5
10C
 10
10.307713006
 20
40.8701419496
 30
0.0
 11
9.4793892458
 21
41.4888432267
 31
0.0
  0
ARC
  8
0
  6
CONTINUOUS
 62
         7
  5
10D
 10
9.4506972271
 20
41.450430051
 30
0.0
 40
0.0479458445
 50
53.2427804467
 51
233.2427804467
  0
LINE
  8
0
  6
CONTINUOUS
 62
         7
  5
10E
 10
9.4220052083
 20
41.4120168753
 30
0.0
 11
10.1893179398
 21
40.8388866698
 31
0.0
  0
ARC
  8
0
  6
CONTINUOUS
 62
         7
  5
10F
 10
12.8331347025
 20
31.0639711845
 30
0.0
 40
10.1261414083
 50
105.1346461502
 51
135.7414308019
  0
LINE
  8
0
  6
CONTINUOUS
 62
         7
  5
110
 10
4.7448907736
 20
38.4291007983
 30
0.0
 11
5.5808167983
 21
38.1309807951
 31
0.0
  0
ARC
  8
0
  6
CONTINUOUS
 62
         7
  5
111
 10
4.7204368309
 20
38.3605321449
 30
0.0
 40
0.0727987331
 50
70.3720153888
 51
250.3720153888
  0
LINE
  8
0
  6
CONTINUOUS
 62
         7
  5
112
 10
5.4703372031
 20
38.0158020802
 30
0.0
 11
4.6959828881
 21
38.2919634916
 31
0.0
  0
ARC
  8
0
  6
CONTINUOUS
 62
         7
  5
113
 10
12.8331347025
 20
31.0639711845
 30
0.0
 40
10.1261414083
 50
136.6444845869
 51
151.69003902
  0
LINE
  8
0
  6
CONTINUOUS
 62
         7
  5
114
 10
2.899244919
 20
34.3791638702
 30
0.0
 11
3.9181312569
 21
35.8662053921
 31
0.0
  0
ARC
  8
0
  6
CONTINUOUS
 62
         7
  5
115
 10
12.8331347025
 20
31.0639711845
 30
0.0
 40
11.7511414083
 50
19.6929541157
 51
151.9498888875
  0
LINE
  8
0
  6
CONTINUOUS
 62
         7
  5
116
 10
2.8316153841
 20
37.868720175
 30
0.0
 11
2.9553995241
 21
37.8861169013
 31
0.0
  0
LINE
  8
0
  6
CONTINUOUS
 62
         7
  5
117
 10
2.5184762937
 20
40.0968234029
 30
0.0
 11
2.8316153841
 21
37.868720175
 31
0.0
  0
ARC
  8
0
  6
CONTINUOUS
 62
         7
  5
118
 10
22.1856023241
 20
33.7558660777
 30
0.0
 40
5.0915929259
 50
69.6871277729
 51
91.3156905637
  0
ARC
  8
0
  6
CONTINUOUS
 62
         7
  5
119
 10
12.8892893076
 20
34.5709242156
 30
0.0
 40
10.1261414083
 50
24.9731577878
 51
35.5862362465
  0
LINE
  8
0
  6
CONTINUOUS
 62
         7
  5
11A
 10
20.9339079139
 20
41.8181619687
 30
0.0
 11
21.1242783873
 21
40.4636056662
 31
0.0
  0
ARC
  8
0
  6
CONTINUOUS
 62
         7
  5
11B
 10
20.9029243346
 20
41.8138075106
 30
0.0
 40
0.0312880726
 50
8.0000000001
 51
188.0
  0
LINE
  8
0
  6
CONTINUOUS
 62
         7
  5
11C
 10
21.0459071316
 20
40.5716179666
 30
0.0
 11
20.8719407554
 21
41.8094530525
 31
0.0
  0
ARC
  8
0
  6
CONTINUOUS
 62
         7
  5
11D
 10
12.8892893076
 20
34.5709242156
 30
0.0
 40
10.1261414083
 50
36.3413250449
 51
68.2992536016
  0
LINE
  8
0
  6
CONTINUOUS
 62
         7
  5
11E
 10
15.9045400669
 20
45.1335913337
 30
0.0
 11
16.6335198226
 21
43.9794032462
 31
0.0
  0
ARC
  8
0
  6
CONTINUOUS
 62
         7
  5
11F
 10
15.8732287731
 20
45.1138152681
 30
0.0
 40
0.0370336318
 50
32.2763135274
 51
212.2763135274
  0
LINE
  8
0
  6
CONTINUOUS
 62
         7
  5
120
 10
16.5172034535
 20
44.0248640699
 30
0.0
 11
15.8419174793
 21
45.0940392026
 31
0.0
  0
ARC
  8
0
  6
CONTINUOUS
 62
         7
  5
121
 10
12.8892893076
 20
34.5709242156
 30
0.0
 40
10.1261414083
 50
69.0058811666
 51
104.4417882712
  0
LINE
  8
0
  6
CONTINUOUS
 62
         7
  5
122
 10
10.3638676111
 20
44.3770949807
 30
0.0
 11
9.5355438509
 21
44.9957962578
 31
0.0
  0
ARC
  8
0
  6
CONTINUOUS
 62
         7
  5
123
 10
9.5068518321
 20
44.9573830821
 30
0.0
 40
0.0479458445
 50
53.2427804467
 51
233.2427804467
  0
LINE
  8
0
  6
CONTINUOUS
 62
         7
  5
124
 10
9.4781598134
 20
44.9189699064
 30
0.0
 11
10.2454725449
 21
44.3458397009
 31
0.0
  0
ARC
  8
0
  6
CONTINUOUS
 62
         7
  5
125
 10
12.8892893076
 20
34.5709242156
 30
0.0
 40
10.1261414083
 50
105.1346461502
 51
135.7414308019
  0
LINE
  8
0
  6
CONTINUOUS
 62
         7
  5
126
 10
4.8010453787
 20
41.9360538294
 30
0.0
 11
5.6369714034
 21
41.6379338262
 31
0.0
  0
ARC
  8
0
  6
CONTINUOUS
 62
         7
  5
127
 10
4.776591436
 20
41.867485176
 30
0.0
 40
0.0727987331
 50
70.3720153888
 51
250.3720153888
  0
LINE
  8
0
  6
CONTINUOUS
 62
         7
  5
128
 10
5.5264918081
 20
41.5227551112
 30
0.0
 11
4.7521374932
 21
41.7989165227
 31
0.0
  0
ARC
  8
0
  6
CONTINUOUS
 62
         7
  5
129
 10
12.8892893076
 20
34.5709242156
 30
0.0
 40
10.1261414083
 50
136.6444845869
 51
151.69003902
  0
LINE
  8
0
  6
CONTINUOUS
 62
         7
  5
12A
 10
2.9553995241
 20
37.8861169013
 30
0.0
 11
3.974285862
 21
39.3731584232
 31
0.0
  0
ARC
  8
0
  6
CONTINUOUS
 62
         7
  5
12B
 10
12.8892893076
 20
34.5709242156
 30
0.0
 40
11.7511414083
 50
19.6929541157
 51
151.9498888875
  0
ENDSEC
  0
EOF
